Ramones - I Wanna Live Chords & Tabs

 

I Wanna Live Chords & Tabs

Ramones Chords & Tabs

Version: 1 Type: Bass Tab 0 ratings
1 star 2 stars 3 stars 4 stars 5 stars
comments

I Wanna Live Bass Tab

The Ramones
I Wanna Live

* most ramones bass-lines are just the low end of the guitar tabs. 

verse:
G|-------------------------------------|
D|--------5-555------------------------|
A|-7-777--------------3-33----5-55-----|
E|-------------------------------------|
[ Tab from: http://www.guitartabs.cc/tabs/r/ramones/i_wanna_live_btab.html ]
chorus:
G|---------------------|--------|
D|---------------------|--------|
A|-----------3-33-5-55-|-777777-|
E|-0-00-3-33-----------|--------|
  
Bridge/Solo:
G|-----------------------------------|--------|
D|-----------------------------------|--------|
A|33333333-55555555-55555555-55555555|55-55-5-|
E|-----------------------------------|--------|

gr8 song, hope u like it too, its not too hard. 
ENJOY!!

brought to u by punkbass479 (AIM SCREENAME)
Comments