Ramones - I Wanna Be Your Boyfriend Chords & Tabs

 

I Wanna Be Your Boyfriend Chords & Tabs

Ramones Chords & Tabs

Version: 3 Type: Tab

I Wanna Be Your Boyfriend Tab

e-----------------------------------------------------------------|
b----3---3--3--3--3--3--3-----------------------------------------|
g----2---2--2--2--2--2--2--0--0--0--0--2--2--0--3--3--3--3--3-----|
d----0---0--0--0--0--0--0--0--0--0--0--2--2-----2--2--2--2--2-----|
a--------------------------x--x--x--x--0--0-----0--0--0--0--0-----|
e--------------------------3--3--3--3-----------------------------|
[ Tab from: http://www.guitartabs.cc/tabs/r/ramones/i_wanna_be_your_boyfriend_tab_ver_3.html ]
e-----------------------------------------------------------------|
b----------------------------3--3--3--3--3--3--3--3---------------|
g----0--0--0--0--2--2--2--2--2--2--2--2--2--2--2--2--0--0--0--0---|
d----0--0--0--0--2--2--2--2--0--0--0--0--0--0--0--0--0--0--0--0---|
a----x--x--x--x--0--0--0--0--------------------------x--x--x--x---|
e----3--3--3--3--------------------------------------3--3--3--3---|

e-----------------------------------------------------------------|
b----------------3--3--3--3--3--3--3--3---------------------------|
g----2--2--2--2--2--2--2--2--2--2--2--2--0--0--0--0--2--2--2--2---|X2
d----2--2--2--2--0--0--0--0--0--0--0--0--0--0--0--0--2--2--2--2---|
a----0--0--0--0--------------------------x--x--x--x--0--0--0--0---|
e----------------------------------------3--3--3--3---------------|