Ramones - I Wanna Be Sedated Chords & Tabs

 

I Wanna Be Sedated Chords & Tabs

Ramones Chords & Tabs

Version: 6 Type: Tab 0 ratings
1 star 2 stars 3 stars 4 stars 5 stars
comments

I Wanna Be Sedated Tab

I Wanna be Sedated                                

This is an awesome song. its pretty easy. 
                                                                        



                                                         
E||--------------------------|--------------------------|
B||--------------------------|--------------------------|
G||--8/-9--9-----9-----9-----|--9-----9-----9-----9-----|
D||--8/-9--9-----9-----9-----|--9-----9-----9-----9-----|
A||--6/-7--7-----7-----7-----|--7-----7-----7-----7-----|
E||-----------0-----0-----0--|-----0-----0-----0-----0--|


                                                      
--------------------------|--------------------------|
--------------------------|--------------------------|
--8/-9--9-----9-----9-----|--9-----9-----9-----9-----|
--8/-9--9-----9-----9-----|--9-----9-----9-----9-----|
--6/-7--7-----7-----7-----|--7-----7-----7-----7-----|
-----------0-----0-----0--|-----0-----0-----0-----0--|


                                                                                
--------------------------|--------------------------|-------------------------|
--------------------------|--------------------------|-------------------------|
--9-----9-----9-----9-----|--9-----9-----9--9--9-----|-------------------------|
--9-----9-----9-----9-----|--9-----9-----9--9--9--7--|--7----7--7--7--7--7--7--|
--7-----7-----7-----7-----|--7-----7-----7--7--7--7--|--7----7--7--7--7--7--7--|
-----0-----0-----0-----0--|-----0-----0-----0--0--5--|--5----5--5--5--5--5--5--|


                                                      
--------------------------|--------------------------|
--------------------------|--------------------------|
--9-----9-----9-----9-----|--9-----9-----9-----9-----|
--9-----9-----9-----9-----|--9-----9-----9-----9-----|
--7-----7-----7-----7-----|--7-----7-----7-----7-----|
-----0-----0-----0-----0--|-----0-----0-----0-----0--|


                                                                               
--------------------------|-------------------------|-------------------------|
--------------------------|-------------------------|-------------------------|
--9-----9-----9-----9-----|-------------------------|--9----9--9--9--9--9--9--|
--9-----9-----9-----9--7--|--7----7--7--7--7--7--7--|--9----9--9--9--9--9--9--|
--7-----7-----7-----7--7--|--7----7--7--7--7--7--7--|--7----7--7--7--7--7--9--|
-----0-----0-----0-----5--|--5----5--5--5--5--5--5--|----------------------7--|


                                                                              
-------------------------|-------------------------|-------------------------|
-------------------------|-------------------------|-------------------------|
-------------------------|--9----9--9--9--9--9--9--|-------------------------|
--9----9--9--9--9--9--9--|--9----9--9--9--9--9--9--|--9----9--9--9--9--9--9--|
--9----9--9--9--9--9--9--|--7----7--7--7--7--7--7--|--9----9--9--9--9--9--9--|
--7----7--7--7--7--7--7--|--0----------------------|--7----7--7--7--7--7--7--|


                                                                              
-------------------------|-------------------------|-------------------------|
-------------------------|-------------------------|-------------------------|
--9----9--9--9--9--9--9--|-------------------------|--9----9--9--9--9--9--9--|
--9----9--9--9--9--9--9--|--9----9--9--9--9--9--9--|--9----9--9--9--9--9--9--|
--7----7--7--7--7--7--7--|--9----9--9--9--9--9--9--|--7----7--7--7--7--7--7--|
--0----------------------|--7----7--7--7--7--7--7--|--0----------------------|


                                                                               
-------------------------|-------------------------|--------------------------|
-------------------------|-------------------------|--------------------------|
-------------------------|-------------------------|--9-----9-----9-----9-----|
--7----7--7--7--7--7/-9--|--9----9--9--9--9--9-----|--9-----9-----9-----9-----|
--7----7--7--7--7--7/-9--|--9----9--9--9--9--9-----|--7-----7-----7-----7-----|
--5----5--5--5--5--5/-7--|--7----7--7--7--7--7--0--|-----0-----0-----0-----0--|


                                                      
--------------------------|--------------------------|
--------------------------|--------------------------|
--9-----9-----9-----9-----|--9-----9-----9-----9-----|
--9-----9-----9-----9-----|--9-----9-----9-----9-----|
--7-----7-----7-----7-----|--7-----7-----7-----7-----|
-----0-----0-----0-----0--|-----0-----0-----0-----0--|


                                                                                
--------------------------|-------------------------|--------------------------|
--------------------------|-------------------------|--------------------------|
--9-----9-----9--9--9-----|-------------------------|--9-----9-----9-----9-----|
--9-----9-----9--9--9--7--|--7----7--7--7--7--7--7--|--9-----9-----9-----9-----|
--7-----7-----7--7--7--7--|--7----7--7--7--7--7--7--|--7-----7-----7-----7-----|
-----0-----0-----0--0--5--|--5----5--5--5--5--5--5--|-----0-----0-----0-----0--|


                                                                                
--------------------------|--------------------------|-------------------------|
--------------------------|--------------------------|-------------------------|
--9-----9-----9-----9-----|--9-----9-----9-----9-----|-------------------------|
--9-----9-----9-----9-----|--9-----9-----9-----9--7--|--7----7--7--7--7--7--7--|
--7-----7-----7-----7-----|--7-----7-----7-----7--7--|--7----7--7--7--7--7--7--|
-----0-----0-----0-----0--|-----0-----0-----0-----5--|--5----5--5--5--5--5--5--|


                                                                              
-------------------------|-------------------------|-------------------------|
-------------------------|-------------------------|-------------------------|
--9----9--9--9--9--9-----|-------------------------|--9----9--9--9--9--9--9--|
--9----9--9--9--9--9--9--|--9----9--9--9--9--9--9--|--9----9--9--9--9--9--9--|
--7----7--7--7--7--7--9--|--9----9--9--9--9--9--9--|--7----7--7--7--7--7--7--|
----------------------7--|--7----7--7--7--7--7--7--|--0----------------------|


                                                                              
-------------------------|-------------------------|-------------------------|
-------------------------|-------------------------|-------------------------|
-------------------------|--9----9--9--9--9--9--9--|-------------------------|
--9----9--9--9--9--9--9--|--9----9--9--9--9--9--9--|--9----9--9--9--9--9--9--|
--9----9--9--9--9--9--9--|--7----7--7--7--7--7--7--|--9----9--9--9--9--9--9--|
--7----7--7--7--7--7--7--|--0----------------------|--7----7--7--7--7--7--7--|


                                                                               
-------------------------|-------------------------|--------------------------|
-------------------------|-------------------------|--------------------------|
--9----9--9--9--9--9--9--|-------------------------|--------------------------|
--9----9--9--9--9--9--9--|--7----7--7--7--7--7/-9--|--9--x--9--9--9--9--9-----|
--7----7--7--7--7--7--7--|--7----7--7--7--7--7/-9--|--9--x--9--9--9--9--9-----|
--0----------------------|--5----5--5--5--5--5/-7--|--7--x--7--7--7--7--7--7--|


                                                      
--------------------------|--------------------------|
--------------------------|--------------------------|
--9--x--9--x--9--x--9-----|--------------------------|
--9--x--9--x--9--x--9--7--|--7--7--7--x--7--x--7/-9--|
--7--x--7--x--7--x--7--7--|--7--7--7--x--7--x--7/-9--|
-----------------------5--|--5--5--5--x--5--x--5/-7--|

[ Tab from: http://www.guitartabs.cc/tabs/r/ramones/i_wanna_be_sedated_tab_ver_6.html ]
                                                       
--------------------------|---------------------------|
--------------------------|---------------------------|
--------------------------|---------------------------|
--7--x--7--x--7--x--7--9--|--9--x--9--x--9--9--9--11--|
--7--x--7--x--7--x--7--9--|--9--x--9--x--9--9--9--11--|
--5--x--5--x--5--x--5--7--|--7--x--7--x--7--7--7--9---|


                                                      
--------------------------|--------------------------|
--------------------------|--------------------------|
--9--x--9--x--9--x--9-----|--------------------------|
--9--x--9--x--9--x--9--7--|--7--7--7--x--7--x--7/-9--|
--7--x--7--x--7--x--7--7--|--7--7--7--x--7--x--7/-9--|
-----------------------5--|--5--5--5--x--5--x--5/-7--|


                                                      
--------------------------|--------------------------|
--------------------------|--------------------------|
--------------------------|--9--x--9--x--9--x--9--8--|
--7--x--7--x--7--x--7--9--|--9--x--9--x--9--x--9--8--|
--7--x--7--x--7--x--7--9--|--7--x--7--x--7--x--7--6--|
--5--x--5--x--5--x--5--7--|--------------------------|


                                                      
--------------------------|--------------------------|
--------------------------|--------------------------|
--8/-9--9--9--9--9--9--9--|--9--9--9--9--9--9--9--9--|
--8/-9--9--9--9--9--9--9--|--9--9--9--9--9--9--9--9--|
--6/-7--7--7--7--7--7--7--|--7--7--7--7--7--7--7--7--|
--------0--0--0-----------|--0-----0-----0--0--0--0--|


                                                                 
|-------------------------------|-------------------------------|
|-------------------------------|-------------------------------|
|*--11--x--11--x--11--x--11--x--|--11--x--11--x--11--11--11--x--|
|*--11--x--11--x--11--x--11--x--|--11--x--11--x--11--11--11--x--|
|---9---x--9---x--9---x--9---x--|--9---x--9---x--9---9---9---x--|
|-------------------------------|-------------------------------|


                                                          
-------------------------|-------------------------------|
-------------------------|-------------------------------|
-------------------------|--11--11--11--x--11--x--11--x--|
--9----9--9--9--9--9-----|--11--11--11--x--11--x--11--x--|
--9----9--9--9--9--9-----|--9---9---9---x--9---x--9---x--|
--7----7--7--7--7--7--0--|-------------------------------|


                                                               
------------------------------|-------------------------------|
------------------------------|-------------------------------|
--11--x--11--x--11--x--11--x--|--11--x--11--x--11--11--11--x--|
--11--x--11--x--11--x--11--x--|--11--x--11--x--11--11--11--x--|
--9---x--9---x--9---x--9---x--|--9---x--9---x--9---9---9---x--|
------------------------------|-------------------------------|


                                                           
-------------------------|--------------------------------|
-------------------------|--------------------------------|
-------------------------|--11----11--11--11--11--11--11--|
--9----9--9--9--9--9-----|--11----11--11--11--11--11--11--|
--9----9--9--9--9--9-----|--9-----9---9---9---9---9---9---|
--7----7--7--7--7--7--0--|--------------------------------|


                                                                  
--------------------------------|--------------------------------|
--------------------------------|--------------------------------|
--------------------------------|--11----11--11--11--11--11--11--|
--11----11--11--11--11--11--11--|--11----11--11--11--11--11--11--|
--11----11--11--11--11--11--11--|--9-----9---9---9---9---9---9---|
--9-----9---9---9---9---9---9---|--------------------------------|


                                                                  
--------------------------------|--------------------------------|
--------------------------------|--------------------------------|
--------------------------------|--11----11--11--11--11--11--11--|
--11----11--11--11--11--11--11--|--11----11--11--11--11--11--11--|
--11----11--11--11--11--11--11--|--9-----9---9---9---9---9---9---|
--9-----9---9---9---9---9---9---|--------------------------------|


                                                                  
--------------------------------|--------------------------------|
--------------------------------|--------------------------------|
--------------------------------|--11----11--11--11--11--11--11--|
--11----11--11--11--11--11--11--|--11----11--11--11--11--11--11--|
--11----11--11--11--11--11--11--|--9-----9---9---9---9---9---9---|
--9-----9---9---9---9---9---9---|--------------------------------|


                                                             
---------------------------|--------------------------------|
---------------------------|--------------------------------|
---------------------------|--------------------------------|
--9--x--9--x--9--9--9/-11--|--11----11--11--11--11--11--11--|
--9--x--9--x--9--9--9/-11--|--11----11--11--11--11--11--11--|
--7--x--7--x--7--7--7/-9---|--9-----9---9---9---9---9---9---|


                                                                     
--------------------------------|----------------------------------||
--------------------------------|----------------------------------||
--11--x--11--11--11--x--11--11--|--11--x--11--11--11--11--11--11--*||
--11--x--11--11--11--x--11--11--|--11--x--11--11--11--11--11--11--*||
--9---x--9---9---9---x--9---9---|--9---x--9---9---9---9---9---9----||
--------------------------------|----------------------------------||


                                                                  
--------------------------------||-------------------------------|
--------------------------------||-------------------------------|
--------------------------------||*--11--x--11--x--11--x--11--x--|
--11----11--11--11--11--11--11--||*--11--x--11--x--11--x--11--x--|
--11----11--11--11--11--11--11--||---9---x--9---x--9---x--9---x--|
--9-----9---9---9---9---9---9---||-------------------------------|


                                                          
--------------------------|------------------------------|
--------------------------|------------------------------|
--9--x--9--x--9--x--9--x--|------------------------------|
--9--x--9--x--9--x--9--x--|--11--x--11--x--11--x--11--x--|
--7--x--7--x--7--x--7--x--|--11--x--11--x--11--x--11--x--|
--------------------------|--9---x--9---x--9---x--9---x--|


                                                                
-------------------------------||------------------------------|
-------------------------------||------------------------------|
--11--x--11--x--11--x--11--x--*||--11--x--11--x--11--x--11--x--|
--11--x--11--x--11--x--11--x--*||--11--x--11--x--11--x--11--x--|
--9---x--9---x--9---x--9---x---||--9---x--9---x--9---x--9---x--|
-------------------------------||------------------------------|


                                                            
|-------------------------------|--------------------------|
|-------------------------------|--------------------------|
|*--11--x--11--x--11--x--11--x--|--9--x--9--x--9--x--9--x--|
|*--11--x--11--x--11--x--11--x--|--9--x--9--x--9--x--9--x--|
|---9---x--9---x--9---x--9---x--|--7--x--7--x--7--x--7--x--|
|-------------------------------|--------------------------|


                                                                
------------------------------|-------------------------------||
------------------------------|-------------------------------||
------------------------------|--11--x--11--x--11--x--11--x--*||
--11--x--11--x--11--x--11--x--|--11--x--11--x--11--x--11--x--*||
--11--x--11--x--11--x--11--x--|--9---x--9---x--9---x--9---x---||
--9---x--9---x--9---x--9---x--|-------------------------------||


                      
--------------------||
--------------------||
--11----------------||
--11----------------||
--9-----------------||
--9-----------------||

Thats it its thanks
Comments