Ramones - I Wanna Be Sedated Chords & Tabs

 

I Wanna Be Sedated Chords & Tabs

Ramones Chords & Tabs

Version: 1 Type: Tab 4 ratings
1 star 2 stars 3 stars 4 stars 5 stars
comments

I Wanna Be Sedated Tab

Ramones - I Wanna Be Sedated
Intro

E ------------------|--------------|------------|
B --9---------------|----------x---|------------|
G --9---------------|----------x---|------------|
D --9---------------|----------x---|--7---------|
A --7--7--7--7--7---|--7--7----x---|--7---------|
E ------------------|--------------|--5---------|

E ------------------|--------------|
B --9---------------|--9-----------|
G --9---------------|--9-----------|
D --9---------------|--9-----------|
A --7--7--7--7--7---|--7-----------|
E ------------------|--0-----------|
[ Tab from: http://www.guitartabs.cc/tabs/r/ramones/i_wanna_be_sedated_tab.html ]
E ------------------|
B -----10-----------|
G --8---8-----8-----|
D --x---x-----x-----|
A --9---9-----9-----|
E --7---7-----7-----|

E ------------------|-----------------------|------------------|
B -----9------------|-----------------------|------10----------|
G --9--9--9---------|-----------------------|--8----8----------|
D --9--9--9---------|--7--------------------|--x----x----------|
A --7-----7---------|--7--------------------|--9----9----------|
E --0-----0---------|--5----------------7---|--7---10----------|


Brought to you by: Carrey G. & Jane G.
Comments