Ramones - I Wanna Be Sedated Chords & Tabs

 

I Wanna Be Sedated Chords & Tabs

Ramones Chords & Tabs

Version: 2 Type: Bass Tab 0 ratings
1 star 2 stars 3 stars 4 stars 5 stars
comments

I Wanna Be Sedated Bass Tab

I Wanna Be Sedated - Ramones
============================================================
Tabbed by: Dai

Well after searching every single bass tab page there is
for this tab, i decided to tab it myself, i believe it sounds
good enough for my first tab, i hope it helps.


Intro (x2)
========
G|-------------------------------------|
D|-------------------------------------|
A|-6h7-7-7-7-7-7-7-7-7-----------------|
E|-------------------------------------|

Verse 1 (x2)
========
G|-------------------------------------|
D|-------------------------------------|
A|-7-7-7-7-7-7-7-7---7-----------------|
E|-----------------7-------------------|

Chorus 1
========
G|------------------------------------------------------------|
D|------------------------------------------------------------|
A|------------------------------------------------------------|
E|7-7-7-7-0-0--7-7-7-7-0-0-0--7-7-7-7-0-0--5-5-5--7-7---------|

Bridge 1
========
G|-------------------------------------|
D|-------------------------------------|
A|-------------------------------------|
E|-0-0-0-0-0-0-0-0---------------------|

Verse 2 (x2)
========
G|-------------------------------------|
D|-------------------------------------|
A|-0-0-0-0-0-0-0-0---0-----------------|
E|-----------------7-------------------|

Chorus 1
[ Tab from: http://www.guitartabs.cc/tabs/r/ramones/i_wanna_be_sedated_btab_ver_2.html ]
"Guitar Solo" (x2)
========
G|-------------------------------------|
D|-------------------------------------|
A|-------------------------------------|
E|-0(x8)-5(x8)-7(x8)-0(x8)-------------|

Bridge 2
========
G|-------------------------------------|
D|-------------------------------------|
A|-------------------------------------|
E|-11h12-12-12-12-12-12-12-12-12-------|

Verse 3 (x2)
========
G|-------------------------------------|
D|-------------------------------------|
A|-----------------2-------------------|
E|-2-2-2-2-2-2-2-2---2-----------------|

Chorus 2
========
G|------------------------------------------------------------|
D|------------------------------------------------------------|
A|-4-4-4-4------4-4-4-4--------4-4-4-4------2-2-2--4-4--------|
E|---------2-2----------2-2-2----------2-2--------------------|

Bridge 3
========
G|-------------------------------------|
D|-------------------------------------|
A|-------------------------------------|
E|-2-2-2-2-2-2-2-2---------------------|

Verse 3 (x2)

Chorus 2

Outro (x4)
========
G|-------------------------------------|
D|-------------------------------------|
A|-------2(x8)-4(x8)-------------------|
E|-2(x8)-------------2(x8)-------------|
On last 4th repeat don't do the last 2(x8) just pick one note on
the second fret of E sting and let ring.

That's all, the listen for the timing, its very simple.
Comments