Ramones - I Dont Wanna Go Down To The Basement Chords & Tabs

 

I Dont Wanna Go Down To The Basement Chords & Tabs

Ramones Chords & Tabs

Version: 1 Type: Tab 0 ratings
1 star 2 stars 3 stars 4 stars 5 stars
comments

I Dont Wanna Go Down To The Basement Tab

#----------------------------------PLEASE NOTE--------------------------------#
#This file is the author's own work and represents their interpretation of the#
#song. You may only use this file for private study, scholarship, or research.#
#-----------------------------------------------------------------------------#
#-- File created with Instab - http://www.pconline.com/~smcarey/instab.html --#
#-----------------------------------------------------------------------------#

Author/Artist: the ramones
Title: I dont wanna go down to the basement
Album: "ramones"
Transcribed by: chris lennon
Email: jnplgrgrngo@attbi.com

(this all my own work) play the whole song three(3) 
times before going to the ending.

   ENJOY!!!
[ Tab from: http://www.guitartabs.cc/tabs/r/ramones/i_dont_wanna_go_down_to_the_basement_tab.html ]
------------------------------------------------------------------------------
------------------------------------------------------------------------------
--99----99---------77----77---------55----55----------------------------------
--99-99-99-9999----77-77-77-7777----55-55-55-5555-----------------------------
--77-99-77-9999----55-77-55-7777----33-55-33-5555-----------------------------
-----77----7777-------55----5555-------33----3333-----------------------------
       intro(up)            chorus(down)  lyrics: hey dadio i dont wanna go.. 

-------x4------------|--------------x4---------------------------|------------
---------------------|-------------------------------------------|------------
------------------9-7|---99999999------9999----77777777------7777|------------
----777777777777--9-7|---99999999--99--9999----77777777--77--7777|------------
----777777777777--7-5|---77777777--99--7777----55555555--77--5555|------------
----555555555555-----|-------------77--------------------55------|------------
   bridge(up)                pre-intro (down left) ending (down right)        

----x4----------------|-------------------------------------------------------
----------------------|-------------------------------------------------------
----------------------|------99----999----------------------------------------
----777777777777--4-5-|------99-99-999-9--------------------------------------
----777777777777--4-5-|------77-99-777-9--------------------------------------
----555555555555--2-3-|---------77-----7--------------------------------------
 order of song : intro, bridge, chorus, pre-intro.                            

Comments