Ramones - I Dont Care Chords & Tabs

 

I Dont Care Chords & Tabs

Ramones Chords & Tabs

Version: 1 Type: Tab 0 ratings
1 star 2 stars 3 stars 4 stars 5 stars
comments

I Dont Care Tab

-------------------------------------------------------------------------------
			     i don't care - ramones
-------------------------------------------------------------------------------

Tabbed by:Anavrin Seixip


PART 1
e|--------------------------------|
B|--------------------------------|
G|--------------------------------|
D|--------------------------------|
A|-7-7-5-7-5-7-5-3-3-3-3-5-5-5-5--|
E|-5-5-3-5-3-5-3-1-1-1-1-3-3-3-3--|


PART 2
e|-------------------------------------|
B|-------------------------------------|
G|-------------------------------------|
D|-------------------------------------|
A|-7-7-7-7--7-7-7-7--3-3-3-3--5-5-5-5--|
E|-5-5-5-5--5-5-5-5--1-1-1-1--3-3-3-3--|

[ Tab from: http://www.guitartabs.cc/tabs/r/ramones/i_dont_care_tab.html ]
PART 3
e|---------------------------------------------------------------------------|
B|---------------------------------------------------------------------------|
G|---------------------------------------------------------------------------|
D|---------------------------------------------------------------------------|
A|-7-7-7-7--7-7-7-7--7-7-7-7--7-7-7-7--5-5-5-5--5-5-5-5--5-5-5-5--5-5-5-5----|
E|-5-5-5-5--5-5-5-5--5-5-5-5--5-5-5-5--3-3-3-3--3-3-3-3--3-3-3-3--3-3-3-3----|

e|-------------------------------------|
B|-------------------------------------|
G|-------------------------------------|
D|-------------------------------------|
A|-3-3-3-3--3-3-3-3--3-3-3-3--3-3-3-3--|
E|-1-1-1-1--1-1-1-1--1-1-1-1--1-1-1-1--|


PART 4
e|----------|
B|----------|
G|----------|
D|----------|
A|-7-7-5-7--|
E|-5-5-3-5--|


ORDER OF SONG:

PART 1 (x2)
PART 2 (x5)
PART 1 (x2)
PART 2 (x5)
PART 1 (x2)
PART 3 
PART 1 (x2)
PART 2 (x5)
PART 1
PART 4
Comments