Ramones - I Believe In Miracles Chords & Tabs

 

I Believe In Miracles Chords & Tabs

Ramones Chords & Tabs

Version: 3 Type: Tab 0 ratings
1 star 2 stars 3 stars 4 stars 5 stars
comments

I Believe In Miracles Tab

   
Song:I belive in miracles
Artist:The Ramones
Tabber:Adam
               This is a great song from a great band.These tabs are right,I spent 
perfecting the solo though.
 enjoy!

  intro: distortion
  e-------------------------------------------------------------------------|
  b-------------------------------------------------------------------------|
  g---------------------99------------------99---------------------------99-|
  d--99999-44-55555-----99--99999-44-55555--99--99999-44-555555-77777777-99-|
  a--99999-44-55555-----77--99999-44-55555--77--99999-44-555555-77777777-77-|
  E--77777-22-33333---------77777-22-33333------77777-22-333333-55555555----|

  "I used to be on an endless run..."
  e-------------------------------------------------------------------------|
  b-------------------------------------------------------------------------|
  g---------------------99------------------99---------------------------99-|
  d--99999-44-55555-----99--99999-44-55555--99--99999-44-555555-77777777-99-|
  a--99999-44-55555-----77--99999-44-55555--77--99999-44-555555-77777777-77-|
  E--77777-22-33333---------77777-22-33333------77777-22-333333-55555555----|

  chorus:
  e------------------------------------------------------------------------|
  b------------------------------------------------------------------------|
  g------------------------------------------------------------------------|
  d----99999999-77777777-55555555---------99999999-77777777-55555555-------|
  a----99999999-77777777-55555555---------99999999-77777777-55555555-------|
  E----77777777-55555555-33333333-3-2-3-5-77777777-55555555-33333333-------|

  "if i can find a reason to live..."
  e-------------------------------------------------------------------------|
  b-------------------------------------------------------------------------|
  g---------------------99------------------99---------------------------99-|
  d--99999-44-55555-----99--99999-44-55555--99--99999-44-555555-77777777-99-|
  a--99999-44-55555-----77--99999-44-55555--77--99999-44-555555-77777777-77-|
  E--77777-22-33333---------77777-22-33333------77777-22-333333-55555555----|
[ Tab from: http://www.guitartabs.cc/tabs/r/ramones/i_believe_in_miracles_tab_ver_3.html ]
  chorus:
  e------------------------------------------------------------------------|
  b------------------------------------------------------------------------|
  g------------------------------------------------------------------------|
  d----99999999-77777777-55555555---------99999999-77777777-55555555-------|
  a----99999999-77777777-55555555---------99999999-77777777-55555555-------|
  E----77777777-55555555-33333333-3-2-3-5-77777777-55555555-33333333-------|

  bridge: "i close my eyes..."
  e------------------------------------------------------------------------|
  b------------------------------------------------------------------------|
  g------------------------------------------------------------------------|
  d---9999999999999999-7777777777777777-9999999999999999-7777777777777777--|
  a---9999999999999999-7777777777777777-9999999999999999-7777777777777777--|
  E---7777777777777777-5555555555555555-7777777777777777-5555555555555555--|

  solo:
  e------------------------------------------------------------------------|
  b------------------------------------------------------------------------|
  g-------------------------------------------7-9b-9b-7br------------------|
  d-------9b-9b-9b-9b-9~~~-9~-9~-9~-9~--7h9----------------9~~~------------|
  a------------------------------------------------------------------------|
  E------------------------------------------------------------------------|

  e-----------------------------------------------------|
  b------12b(hold)-10-9-7p9p79p7-----------12~~--15b17--|(let ring thru chorus)
  g------------------------------9-7--11b---------------|
  d-----------------------------------------------------|
  a-----------------------------------------------------|
  E-----------------------------------------------------|

  chorus:
  e------------------------------------------------------------------------|
  b------------------------------------------------------------------------|
  g------------------------------------------------------------------------|
  d----99999999-77777777-55555555---------99999999-77777777-55555555-------|
  a----99999999-77777777-55555555---------99999999-77777777-55555555-------|
  E----77777777-55555555-33333333-3-2-3-5-77777777-55555555-33333333-------|

  outro:
  e------------------------------------------------------------------------|
  b------------------------------------------------------------------------|
  g------------------------------------------------------------------------|
  d---99999-44-5555-44-9---------------------------------------------------|
  a---99999-44-5555-44-9---------------------------------------------------|
  E---77777-22-3333-22-7---------------------------------------------------|

  Well,thats it.Its a great song from the Ramones.

Key~For this song
p=pull off
h=hammer on
b=bend
~=vibrato
br=bend and release

Questions?Comments? e-mail me at xamericanidiot04@yahoo.com
Comments