Ramones - Havana Affair Chords & Tabs

 

Havana Affair Chords & Tabs

Ramones Chords & Tabs

Version: 1 Type: Tab 1 rating
1 star 2 stars 3 stars 4 stars 5 stars
comments

Havana Affair Tab

Artist: The Ramones
Song: Havana Affair
Tabbed by: Insidefake
Date: 16.03.2003
Contact: insidefake@starline.ee
____________________________________________________________________________________________

Well, here is my first tab... i don't know if it's exactly right, but it sounds pretty nice!
____________________________________________________________________________________________



Intro (play 2x):

E|------------------------
B|------------------------
G|-------------777--------
D|---99999999--777-7777---
A|---99999999--555-7777---
E|---77777777------5555---


Verse (play 2x)

E|-----------------------------------------
B|-----------------------------------------
G|-----------------------------------------
D|---99999999-55555555-77777777-44444444---
A|---99999999-55555555-77777777-44444444---
E|---77777777-33333333-55555555-22222222---


Chorus (play 2x)
[ Tab from: http://www.guitartabs.cc/tabs/r/ramones/havana_affair_tab.html ]
E|-----------------------
B|-----------------------
G|-----------------------
D|---55555555-44444444---
A|---55555555-44444444---
E|---33333333-22222222---


Pre-verse (play 2x)

E|-----------------------
B|-----------------------
G|-----------------------
D|---99999999--55-4-44---
A|---99999999--55-4-44---
E|---77777777--33-2-22---


Mid-part (play 4x)

E|---------------------
B|---------------------
G|--------------7--9---
D|---7/9-99999--7--9---
A|---7/9-99999--5--7---
E|---5/7-77777---------


Outro (play 1x)

E|---------------------------------------------
B|---------------------------------------------
G|---------------------------------------------
D|---99999999--55-4-44--99999999--55-4-44--9---
A|---99999999--55-4-44--99999999--55-4-44--9---
E|---77777777--33-2-22--77777777--33-2-22--7---




The order to play:

1.  Intro
2.  Verse
3.  Chorus
4.  Pre-verse
5.  Verse
6.  Chorus
7.  Pre-verse
8.  Mid-part
9.  Verse
10. Chorus
11. Pre-verse
12. Mid-part
13. Verse
14. Chorus
15. Outro
Comments