Ramones - Havana Affair Chords & Tabs

 

Havana Affair Chords & Tabs

Ramones Chords & Tabs

Version: 1 Type: Bass Tab 0 ratings
1 star 2 stars 3 stars 4 stars 5 stars
comments

Havana Affair Bass Tab

   
Band:THE RAMONES
Song:havana affair
tabbed by:ryan

Into
G:---------------------------------
D:----------------------------------
A:------------5-----------------5
E:-7-7-7-7----5--7-7-7-7----5
[ Tab from: http://www.guitartabs.cc/tabs/r/ramones/havana_affair_btab.html ]
Verse
G:-----------------------------------------------
D:-----------------------------------------------
A:-----------------------------------------------
E:-7-7-7-7--3-3-3-3--5-5-5-5--2-2-2-2

Chorus
G:-----------------------
D:-----------------------
A:-----------------------
E:-3-3-3-3--2-2-2-2

Mid part
G:
D:
A:-------5-7-----------5-7------------5-7------------5-7
E:-5-7------5-7--5-7-----5-7--5-7-----5-7--5-7


Comments