Ramones - Happy Birthday Mr Burns Chords & Tabs

 

Happy Birthday Mr Burns Chords & Tabs

Ramones Chords & Tabs

Version: 1 Type: Tab 0 ratings
1 star 2 stars 3 stars 4 stars 5 stars
comments

Happy Birthday Mr Burns Tab

   
-----------------------------------------------------------------------------
		 HAPPY BIRTHDAY MR. BURNS - The Ramones
-----------------------------------------------------------------------------

Tabbed by: Ignacio "Coco" Vespoli
Email: cocofuhgawz@hotmail.com

This is the song that the ramones play in their perfomance at "The Simpsons", for Mr. Burns Birthday!!!


Tuning: Normal
____________________________________________________________________

I'd just like to say this gig sucks, hey, up yours, Springfield

1 2 3 4


Then the guitar goes:
e|-------------------------------------------|
B|-------------------------------------------|
G|--5/6-6-6-6--5/6-6-6-6--5/6-6-6-6--5/6-6---|
D|--5/6-6-6-6--5/6-6-6-6--5/6-4-4-4--5/6-6---|
A|--3/4-4-4-4--3/4-4-4-4--3/4-4-4-4--3/4-4---|
E|-------------------------------------------|

Happy   birthday to you! happy birthday!
--------------------------------------------|
--------------------------------------------|
--5-5-5-5-5-5-5-5-5-6-6-6-6-6-6-6-6-6-6-6---|
--5-5-5-5-5-5-5-5-5-6-6-6-6-6-6-6-6-6-6-6---|
--3-3-3-3-3-3-3-3-3-4-4-4-4-4-4-4-4-4-4-4---|
--------------------------------------------|
[ Tab from: http://www.guitartabs.cc/tabs/r/ramones/happy_birthday_mr_burns_tab.html ]
Happy   birthday to you! happy birthday!
--------------------------------------------|
--------------------------------------------|
--5-5-5-5-5-5-5-5-5-6-6-6-6-6-6-6-6-6-6-6---|
--5-5-5-5-5-5-5-5-5-6-6-6-6-6-6-6-6-6-6-6---|
--3-3-3-3-3-3-3-3-3-4-4-4-4-4-4-4-4-4-4-4---|
--------------------------------------------|

Happy   birthdaaaayy    Burnsy
----------------------------------------|
----------------------------------------|
--5-5-5-5-5-5-5-5-5-6-6-6-6-6-6-6-6-6---|
--5-5-5-5-5-5-5-5-5-6-6-6-6-6-6-6-6-6---|
--3-3-3-3-3-3-3-3-3-4-4-4-4-4-4-4-4-4---|
----------------------------------------|

Happy   birthdaay   to you!!!
------------------------------------|
------------------------------------|
--5-5-5-5-5-5-5-5-5-6-6-6-6-6-6-6---|
--5-5-5-5-5-5-5-5-5-6-6-6-6-6-6-6---|
--3-3-3-3-3-3-3-3-3-4-4-4-4-4-4-4---|
------------------------------------|

Go to hell you old bastard.

_____________________________________________________________________________
 /  slide up
 \  slide down
 h  hammer-on
 p  pull-off
 ~  vibrato
 +  harmonic
 x  Mute note
=============================================================================
Comments? Send an e-mail!!!
Comments