Ramones - Gimmie Gimmie Shock Treatment Chords & Tabs

 

Gimmie Gimmie Shock Treatment Chords & Tabs

Ramones Chords & Tabs

Version: 1 Type: Tab 1 rating
1 star 2 stars 3 stars 4 stars 5 stars
comments

Gimmie Gimmie Shock Treatment Tab


All Chords are strum quicky several times exept bridge.


Into
E|-----------------------||
B|-9-------------7-------||
G|-9-------------7-------|| Repeat several times
D|-7-----7-------5-------||
A|-------7---------------||
E|-------5---------------||
[ Tab from: http://www.guitartabs.cc/tabs/r/ramones/gimmie_gimmie_shock_treatment_tab.html ]
Verse
E|-----------------------||
B|-----------------------||
G|------------9----------||
D|--9----7----9----------|| 
A|--9----7----7----------||
E|--7----5---------------||

Bridge (follows verse)
E|----------------------------||
B|----------------------------||
G|------9-9-x------11-11------||
D|--9-x-9-9-x-11-x-11-11------||
A|--9-x-7-7-x-11-x--9--9------||
E|--7-x--------9-x------------||

Chorus
E|---------------||
B|---------------||
G|---------------||
D|--5----7-------||
A|--5----7-------||
E|--3----5-------||


Not Hard
Comments