Ramones - Gimme Gimme Shock Treatment Chords & Tabs

 

Gimme Gimme Shock Treatment Chords & Tabs

Ramones Chords & Tabs

Version: 1 Type: Tab 0 ratings
1 star 2 stars 3 stars 4 stars 5 stars
comments

Gimme Gimme Shock Treatment Tab

destinypunk@hotmail.com  (any shit)

INTRO

6-------------------5---------------
5--7-7-7-7-7-7-7-7--7--5------------
4--9-9-9-9-9-9-9-9--7--7------------
3--9-9-9-9-9-9-9-9-----7------------    x4
2-----------------------------------
1-----------------------------------

VERSE

6--7-7-7-7-7-7--5-5-5-5-5-5--------------------
5--9-9-9-9-9-9--7-7-7-7-7-7--7-7-7-7-7-7-7-7---
4--9-9-9-9-9-9--7-7-7-7-7-7--9-9-9-9-9-9-9-9---
3----------------------------9-9-9-9-9-9-9-9---
2----------------------------------------------
1----------------------------------------------
[ Tab from: http://www.guitartabs.cc/tabs/r/ramones/gimme_gimme_shock_treatment_tab.html ]
6--7-7---------9-9----------                          x2
5--9-9--7-7-7--1111--9-9-9--
4--9-9--9-9-9--1111--111111-
3-------9-9-9--------111111-
2---------------------------
1---------------------------

CHORUS

this part use a kind of efect and sliding the 6 string between this chords...

6--7-7-7-7-7-7-7--5-5-5-5-5-5-5-----------------
5--9-9-9-9-9-9-9--7-7-7-7-7-7-7-----------------
4--9-9-9-9-9-9-9--7-7-7-7-7-7-7-----------------
3-----------------------------------------------
2-----------------------------------------------
1-----------------------------------------------

then repeat the INTRO and then repeat a VERSE then a CHORUS and thats it.
Comments