Ramones - Gimme Gimme Shock Treatment Chords & Tabs

 

Gimme Gimme Shock Treatment Chords & Tabs

Ramones Chords & Tabs

Version: 1 Type: Bass Tab 0 ratings
1 star 2 stars 3 stars 4 stars 5 stars
comments

Gimme Gimme Shock Treatment Bass Tab

   
Ramones - Gimme Gimme Shock Treatment.
standard tuning
E,A,D,G

intro                     verse
G---------------------|  |-------------------------------|
D---------------------|  |-------------------------------|
A-7-7-7-7-7-7-7-------|x4|-----------------7-7-7-7-7-7-7-|x4
E---------------5--7--|  |-7-7-7-7-5-5-5-5---------------|
[ Tab from: http://www.guitartabs.cc/tabs/r/ramones/gimme_gimme_shock_treatment_btab.html ]
verse break                       
G-----------------------------|  
D-----------------------------|  
A---------7-7-7---------9-9-9-|x2
E-7-7-7-7-------9-9-9-9-------|  

chorus
G-----------------|
D-----------------|
A-----------------|
E-3-3-3-3-5-5-5-5-|

"gimme gimme shock treatment..."


These are the parts to the puzzle, you just need to piece it together.

thanks :)

please check out my other tabs.

Comments