Ramones - Cretin Hop Chords & Tabs

 

Cretin Hop Chords & Tabs

Ramones Chords & Tabs

Version: 1 Type: Tab 0 ratings
1 star 2 stars 3 stars 4 stars 5 stars
comments

Cretin Hop Tab


Tablatura de NICO M. (nicokbbl@hotmail.com)

Artista: Ramones
Cancion: Cretin Hop
Album: Rocket To Russia (1977) 




Intro   
1|------------------|------------------|
2|------------------|---------3-3-3-3--|
3|--1-1-2-2-1-1-1-1-|-1-1-1-1-2-2-2-2--|x4
4|--2-2-2-2-2-2-2-2-|-2-2-2-2-0-0-0-0--|
5|--2-2-0-0-2-2-2-2-|-2-2-2-2----------|
6|--0-0-----0-0-0-0-|-0-0-0-0----------|





1|--x-x-x-x-x-x-x-x--|--x-x-x-x-x-x-x-x-x--|--x-x-x-x-x-x-x-x--|
2|--2-2-2-2-2-2-2-2--|--x-x-x-x-x-x-x-x-x--|--5-5-5-5-5-5-5-5--|
3|--2-2-2-2-2-2-2-2--|--1-1-1-1-1-1-1-1-1--|--4-4-4-4-4-4-4-4--|
4|--2-2-2-2-2-2-2-2--|--2-2-2-2-2-2-2-2-2--|--2-2-2-2-2-2-2-2--|
5|--0-0-0-0-0-0-0-0--|--2-2-2-2-2-2-2-2-2--|--x-x-x-x-x-x-x-x--|
6|--x-x-x-x-x-x-x-x--|--0-0-0-0-0-0-0-0-0--|--x-x-x-x-x-x-x-x--|


   There's no stoppin' the cretins from hoppin'
   
   You gotta keep it beatin'


1|--x-x-x-x-x-x-x--|--x-x-x-x-x-x-x-x--|--x-x-x-x-x-x-x-x-x--|
2|--x-x-x-x-x-x-x--|--2-2-2-2-2-2-2-2--|--x-x-x-x-x-x-x-x-x--|
3|--1-1-1-1-1-1-1--|--2-2-2-2-2-2-2-2--|--1-1-1-1-1-1-1-1-1--|
4|--2-2-2-2-2-2-2--|--2-2-2-2-2-2-2-2--|--2-2-2-2-2-2-2-2-2--|
5|--2-2-2-2-2-2-2--|--0-0-0-0-0-0-0-0--|--2-2-2-2-2-2-2-2-2--|
6|--0-0-0-0-0-0-0--|--x-x-x-x-x-x-x-x--|--0-0-0-0-0-0-0-0-0--|


                      Cretin! Cretin!

                                         
1|--x-x-x-x-x-x-x-x--|--x-x-x-x-x-x-x-x-x--|--x-x-x-x-x-x-x-x--|
2|--5-5-5-5-5-5-5-5--|--x-x-x-x-x-x-x-x-x--|--x-x-x-x-x-x-x-x--|
3|--4-4-4-4-4-4-4-4--|--1-1-1-1-1-1-1-1-1--|--4-4-4-4-4-4-4-4--|
4|--2-2-2-2-2-2-2-2--|--2-2-2-2-2-2-2-2-2--|--4-4-4-4-4-4-4-4--|
5|--x-x-x-x-x-x-x-x--|--2-2-2-2-2-2-2-2-2--|--2-2-2-2-2-2-2-2--|
6|--x-x-x-x-x-x-x-x--|--0-0-0-0-0-0-0-0-0--|--x-x-x-x-x-x-x-x--|


   I'm gonna go for a whirl with my cretin girl
   
   My feet won't stop



1|--x-x-x-x-x-x-x-x--|--x-x-x-x-x-x-x-x--|--x-x-x-x-x-x-x-x--|
2|--5-5-5-5-5-5-5-5--|--x-x-x-x-x-x-x-x--|--5-5-5-5-5-5-5-5--|
3|--4-4-4-4-4-4-4-4--|--4-4-4-4-4-4-4-4--|--4-4-4-4-4-4-4-4--|
4|--2-2-2-2-2-2-2-2--|--4-4-4-4-4-4-4-4--|--2-2-2-2-2-2-2-2--|
5|--x-x-x-x-x-x-x-x--|--2-2-2-2-2-2-2-2--|--x-x-x-x-x-x-x-x--|
6|--x-x-x-x-x-x-x-x--|--x-x-x-x-x-x-x-x--|--x-x-x-x-x-x-x-x--|


   Doin' the Cretin Hop                     Cretin! Cretin!


1|--x-x-x-x-x-x-x-x--|--x-x-x-x-x-x-x-x--|--x-x-x-x-x-x-x-x--|
2|--5-5-5-5-5-5-5-5--|--x-x-x-x-x-x-x-x--|--3-3-3-3-3-3-3-3--|
3|--4-4-4-4-4-4-4-4--|--2-2-2-2-2-2-2-2--|--2-2-2-2-2-2-2-2--|
4|--2-2-2-2-2-2-2-2--|--2-2-2-2-2-2-2-2--|--0-0-0-0-0-0-0-0--|
5|--x-x-x-x-x-x-x-x--|--0-0-0-0-0-0-0-0--|--x-x-x-x-x-x-x-x--|
6|--x-x-x-x-x-x-x-x--|--x-x-x-x-x-x-x-x--|--x-x-x-x-x-x-x-x--|





1|--x-x-x-x-x-x-x-x--|--x-x-x-x-x-x-x-x--|--x-x-x-x-x-x-x-x--|
2|--x-x-x-x-x-x-x-x--|--3-3-3-3-3-3-3-3--|--x-x-x-x-x-x-x-x--|
3|--2-2-2-2-2-2-2-2--|--2-2-2-2-2-2-2-2--|--1-1-1-1-1-1-1-1--|
4|--2-2-2-2-2-2-2-2--|--0-0-0-0-0-0-0-0--|--2-2-2-2-2-2-2-2--|
5|--0-0-0-0-0-0-0-0--|--x-x-x-x-x-x-x-x--|--2-2-2-2-2-2-2-2--|
6|--x-x-x-x-x-x-x-x--|--x-x-x-x-x-x-x-x--|--0-0-0-0-0-0-0-0--|


                        1-2-3-4    Cretins wanna hop some more


1|--x-x-x-x-x-x-x-x--|--x-x-x-x-x-x-x-x--|--x-x-x-x-x-x-x-x--|--x-x-x-x-x-x-x-x--|
2|--x-x-x-x-x-x-x-x--|--3-3-3-3-3-3-3-3--|--x-x-x-x-x-x-x-x--|--x-x-x-x-x-x-x-x--|
3|--2-2-2-2-2-2-2-2--|--2-2-2-2-2-2-2-2--|--1-1-1-1-1-1-1-1--|--2-2-2-2-2-2-2-2--|
4|--2-2-2-2-2-2-2-2--|--0-0-0-0-0-0-0-0--|--2-2-2-2-2-2-2-2--|--2-2-2-2-2-2-2-2--|
5|--0-0-0-0-0-0-0-0--|--x-x-x-x-x-x-x-x--|--2-2-2-2-2-2-2-2--|--0-0-0-0-0-0-0-0--|
6|--x-x-x-x-x-x-x-x--|--x-x-x-x-x-x-x-x--|--0-0-0-0-0-0-0-0--|--x-x-x-x-x-x-x-x--|


                         4-5-6-7   All good cretins go to heaven

[ Tab from: http://www.guitartabs.cc/tabs/r/ramones/cretin_hop_tab.html ]
1|--x-x-x-x-x-x-x-x--|--x-x-x-x-x-x-x-x--|
2|--x-x-x-x-x-x-x-x--|--3-3-3-3-3-3-3-3--|
3|--2-2-2-2-2-2-2-2--|--2-2-2-2-2-2-2-2--|
4|--2-2-2-2-2-2-2-2--|--0-0-0-0-0-0-0-0--|
5|--0-0-0-0-0-0-0-0--|--x-x-x-x-x-x-x-x--|
6|--x-x-x-x-x-x-x-x--|--x-x-x-x-x-x-x-x--|





1|--x-x-x-x-x-x-x-x--|--x-x-x-x-x-x-x-x-x--|--x-x-x-x-x-x-x-x--|
2|--2-2-2-2-2-2-2-2--|--x-x-x-x-x-x-x-x-x--|--5-5-5-5-5-5-5-5--|
3|--2-2-2-2-2-2-2-2--|--1-1-1-1-1-1-1-1-1--|--4-4-4-4-4-4-4-4--|
4|--2-2-2-2-2-2-2-2--|--2-2-2-2-2-2-2-2-2--|--2-2-2-2-2-2-2-2--|
5|--0-0-0-0-0-0-0-0--|--2-2-2-2-2-2-2-2-2--|--x-x-x-x-x-x-x-x--|
6|--x-x-x-x-x-x-x-x--|--0-0-0-0-0-0-0-0-0--|--x-x-x-x-x-x-x-x--|


   There's no stoppin' the cretins from hoppin'
   
   You gotta keep it beatin'


1|--x-x-x-x-x-x-x--|--x-x-x-x-x-x-x-x--|--x-x-x-x-x-x-x-x-x--|
2|--x-x-x-x-x-x-x--|--2-2-2-2-2-2-2-2--|--x-x-x-x-x-x-x-x-x--|
3|--1-1-1-1-1-1-1--|--2-2-2-2-2-2-2-2--|--1-1-1-1-1-1-1-1-1--|
4|--2-2-2-2-2-2-2--|--2-2-2-2-2-2-2-2--|--2-2-2-2-2-2-2-2-2--|
5|--2-2-2-2-2-2-2--|--0-0-0-0-0-0-0-0--|--2-2-2-2-2-2-2-2-2--|
6|--0-0-0-0-0-0-0--|--x-x-x-x-x-x-x-x--|--0-0-0-0-0-0-0-0-0--|


                      Cretin! Cretin!

                                         
1|--x-x-x-x-x-x-x-x--|--x-x-x-x-x-x-x-x-x--|--x-x-x-x-x-x-x-x--|
2|--5-5-5-5-5-5-5-5--|--x-x-x-x-x-x-x-x-x--|--x-x-x-x-x-x-x-x--|
3|--4-4-4-4-4-4-4-4--|--1-1-1-1-1-1-1-1-1--|--4-4-4-4-4-4-4-4--|
4|--2-2-2-2-2-2-2-2--|--2-2-2-2-2-2-2-2-2--|--4-4-4-4-4-4-4-4--|
5|--x-x-x-x-x-x-x-x--|--2-2-2-2-2-2-2-2-2--|--2-2-2-2-2-2-2-2--|
6|--x-x-x-x-x-x-x-x--|--0-0-0-0-0-0-0-0-0--|--x-x-x-x-x-x-x-x--|


   I'm gonna go for a whirl with my cretin girl
   
   My feet won't stop



1|--x-x-x-x-x-x-x-x--|--x-x-x-x-x-x-x-x--|--x-x-x-x-x-x-x-x--|
2|--5-5-5-5-5-5-5-5--|--x-x-x-x-x-x-x-x--|--5-5-5-5-5-5-5-5--|
3|--4-4-4-4-4-4-4-4--|--4-4-4-4-4-4-4-4--|--4-4-4-4-4-4-4-4--|
4|--2-2-2-2-2-2-2-2--|--4-4-4-4-4-4-4-4--|--2-2-2-2-2-2-2-2--|
5|--x-x-x-x-x-x-x-x--|--2-2-2-2-2-2-2-2--|--x-x-x-x-x-x-x-x--|
6|--x-x-x-x-x-x-x-x--|--x-x-x-x-x-x-x-x--|--x-x-x-x-x-x-x-x--|


   Doin' the Cretin Hop                     Cretin! Cretin!


1|--x-x-x-x-x-x-x-x--|--x-x-x-x-x-x-x-x--|--x-x-x-x-x-x-x-x--|
2|--5-5-5-5-5-5-5-5--|--x-x-x-x-x-x-x-x--|--3-3-3-3-3-3-3-3--|
3|--4-4-4-4-4-4-4-4--|--2-2-2-2-2-2-2-2--|--2-2-2-2-2-2-2-2--|
4|--2-2-2-2-2-2-2-2--|--2-2-2-2-2-2-2-2--|--0-0-0-0-0-0-0-0--|
5|--x-x-x-x-x-x-x-x--|--0-0-0-0-0-0-0-0--|--x-x-x-x-x-x-x-x--|
6|--x-x-x-x-x-x-x-x--|--x-x-x-x-x-x-x-x--|--x-x-x-x-x-x-x-x--|





1|--x-x-x-x-x-x-x-x--|--x-x-x-x-x-x-x-x--|--x-x-x-x-x-x-x-x--|
2|--x-x-x-x-x-x-x-x--|--3-3-3-3-3-3-3-3--|--x-x-x-x-x-x-x-x--|
3|--2-2-2-2-2-2-2-2--|--2-2-2-2-2-2-2-2--|--1-1-1-1-1-1-1-1--|
4|--2-2-2-2-2-2-2-2--|--0-0-0-0-0-0-0-0--|--2-2-2-2-2-2-2-2--|
5|--0-0-0-0-0-0-0-0--|--x-x-x-x-x-x-x-x--|--2-2-2-2-2-2-2-2--|
6|--x-x-x-x-x-x-x-x--|--x-x-x-x-x-x-x-x--|--0-0-0-0-0-0-0-0--|


                        1-2-3-4    Cretins wanna hop some more


1|--x-x-x-x-x-x-x-x--|--x-x-x-x-x-x-x-x--|--x-x-x-x-x-x-x-x--|--x-x-x-x-x-x-x-x--|
2|--x-x-x-x-x-x-x-x--|--3-3-3-3-3-3-3-3--|--x-x-x-x-x-x-x-x--|--x-x-x-x-x-x-x-x--|
3|--2-2-2-2-2-2-2-2--|--2-2-2-2-2-2-2-2--|--1-1-1-1-1-1-1-1--|--2-2-2-2-2-2-2-2--|
4|--2-2-2-2-2-2-2-2--|--0-0-0-0-0-0-0-0--|--2-2-2-2-2-2-2-2--|--2-2-2-2-2-2-2-2--|
5|--0-0-0-0-0-0-0-0--|--x-x-x-x-x-x-x-x--|--2-2-2-2-2-2-2-2--|--0-0-0-0-0-0-0-0--|
6|--x-x-x-x-x-x-x-x--|--x-x-x-x-x-x-x-x--|--0-0-0-0-0-0-0-0--|--x-x-x-x-x-x-x-x--|


                         4-5-6-7   All good cretins go to heaven


1|--x-x-x-x-x-x-x-x--|--x-x-x-x-x-x-x-x--|
2|--x-x-x-x-x-x-x-x--|--3-3-3-3-3-3-3-3--|
3|--2-2-2-2-2-2-2-2--|--2-2-2-2-2-2-2-2--|
4|--2-2-2-2-2-2-2-2--|--0-0-0-0-0-0-0-0--|
5|--0-0-0-0-0-0-0-0--|--x-x-x-x-x-x-x-x--|
6|--x-x-x-x-x-x-x-x--|--x-x-x-x-x-x-x-x--|
Comments