Ramones - Commando Chords & Tabs

 

Commando Chords & Tabs

Ramones Chords & Tabs

Version: 2 Type: Tab 0 ratings
1 star 2 stars 3 stars 4 stars 5 stars
comments

Commando Tab

Intro x2
|-------------------------|--------------------------------|
|-------------------------|--------------------------------|
|-------6666-6666---------|-----9999-9999------------------|
|-------6666-6666---------|-----9999-9999------------------|
|-------4444-4444---------|-----7777-7777------------------|
|-------------------------|--------------------------------|

|-------------------------|--------------------------------|
|-------------------------|--------------------------------|
|-------------------------|--------------------------------|
|-------7777-7777---------|-----9999-9999------------------|
|-------7777-7777---------|-----9999-9999------------------|
|-------5555-5555---------|-----7777-7777------------------|
[ Tab from: http://www.guitartabs.cc/tabs/r/ramones/commando_tab_ver_2.html ]
Verse x3
|------------------|-------------------|-----------------|-----------------|
|------------------|-------------------|-----------------|-----------------|
|------------------|-------------------|-----------------|-----------------|
|--9---11-11-11-11-|-9---11-11-11-11---|-9---11-11-11-11-|-9-11-11-11-11---|
|--9---11-11-11-11-|-9---11-11-11-11---|-9---11-11-11-11-|-9-11-11-11-11---|
|--7---9--9--9--9--|-7---9--9--9--9----|-7---9--9--9--9--|-7-9--9-9-9----|

|------------------|-------------------|
|------------------|-------------------|
|--9---11-11-11-11-|-9---11-11-11-11---|
|--9---11-11-11-11-|-9---11-11-11-11---|
|--7---9--9--9--9--|-7---9--9--9--9----|
|------------------|-------------------|

Chorus x4
|-------------------------|---------------------|
|-------------------------|---------------------|
|-------6666-6666---------|-----9999-9999-------|
|-------6666-6666---------|-----9999-9999-------|
|-------4444-4444---------|-----7777-7777-------|
|-------------------------|---------------------|

|-------------------------|---------------------|
|-------------------------|---------------------|
|-------------------------|---------------------|
|-------7777-7777---------|-----9999-9999-------|
|-------7777-7777---------|-----9999-9999-------|
|-------5555-5555---------|-----7777-7777-------|

 x2 then go to the verse
|------------------|-------------------|
|------------------|-------------------|
|--9---11-11-11-11-|-9---11-11-11-11---|
|--9---11-11-11-11-|-9---11-11-11-11---|
|--7---9--9--9--9--|-7---9--9--9--9----|
|------------------|-------------------|
Comments