Ramones - Commando Chords & Tabs

 

Commando Chords & Tabs

Ramones Chords & Tabs

Version: 3 Type: Bass Tab

Commando Bass Tab

RAMONES- Commando

The other version was close, but I think this is right.

INTRO
G------------------------------------------------------------------|
D------------------------------------------------------------------|   X2
A--------------7-7-7-7-7-7-7-7-------------------------------------|
E-9-9-9-9-9-9-------------------5-5-5-5-5-5-5--7-7-7-7-7-7-7-------|

VERSE
G------------------------------------------------------------------|
D------------------------------------------------------------------|  X3
A---------------------------------------------7-999999---7-999999--|
E-7-999999---7-999999---7-999999---7-999999------------------------|
[ Tab from: http://www.guitartabs.cc/tabs/r/ramones/commando_btab_ver_3.html ]
CHORUS
G-----------------------------------------------------------------|
D-----------------------------------------------------------------|    X4
A--------------7-7-7-7-7-7-7-7------------------------------------|
E-9-9-9-9-9-9-------------------5-5-5-5-5-5-5--7-7-7-7-7-7-7------|

Immediately after chorus
G-----------------------------------------------------------------|
D-----------------------------------------------------------------|
A-7-999999---7-999999---------------------------------------------|
E-----------------------------------------------------------------|

Outro
G-------------------------------------------------------------------|
D-------------------------------------------------------------------|
A-7-999999---7-999999---------------------------------------------7-|
E-----------------------7-999999---7-999999---7-999999---7-999999---|


Just listen to the song to get the timing right.
email me at ksneddon@juno.com