Ramones - Chinese Rock Chords & Tabs

 

Chinese Rock Chords & Tabs

Ramones Chords & Tabs

Version: 1 Type: Tab 0 ratings
1 star 2 stars 3 stars 4 stars 5 stars
comments

Chinese Rock Tab

any shit  DESTINYPUNK@HOTMAIL.COM

CHINESE ROCK

INTRO

6--1-3-3-3-3-------------------
5--3-5-5-5-5-----1-3-3-3-3-----
4--3-5-5-5-5-----3-5-5-5-5-----
3------------x2--3-5-5-5-5----- x4
2--------------------------x2--
1------------------------------

VERSE

6--1-1-1-1-1-1-1--3----------1-1-1-1-1-1-1-1--3-3-3-3-3-3-3-3--- but the first 
5--3-3-3-3-3-3-3--5--3-3-3---3-3-3-3-3-3-3-3--5-5-5-5-5-5-5-5--- part of the 
4--3-3-3-3-3-3-3--5--5-5-5---3-3-3-3-3-3-3-3--5-5-5-5-5-5-5-5--- verse just not
3--------------------5-5-5-------------------------------------- play just 1 3..
2---------------------------------------------------------------  x2
1---------------------------------------------------------------
[ Tab from: http://www.guitartabs.cc/tabs/r/ramones/chinese_rock_tab.html ]
CHORUS

6---------5-5-5--3-3-3--5-5-5---
5--5-5-5--7-7-7--5-5-5--7-7-7---
4--7-7-7--7-7-7--5-5-5--7-7-7---
3--7-7-7------------------------  x4
2-------------------------------
1-------------------------------

then repeat the full song and the interlude is.......

INTERLUDE

6--1--3--5--1--3--5-------5--3---
5--3--5--7--3--5--7----5--7--5---
4--3--5--7--3--5--7----7--7--5---
3----------------------7---------
2--------------------------------
1--------------------------------

then repeat a intro then a chorus and the end its like this........

END

6--------------------------
5--3--5--3--5--3--5----5---
4--5--7--5--7--5--7----7---
3--5--7--5--7--5--7----7---
2--------------------------
1--------------------------
Comments