Ramones - California Sun Chords & Tabs

 

California Sun Chords & Tabs

Ramones Chords & Tabs

Version: 6 Type: Tab 0 ratings
1 star 2 stars 3 stars 4 stars 5 stars
comments

California Sun Tab

   
Tuning:Standard

Intro:
e|----------------------|
B|----------------------|
G|----------1-1-1-------|
D|--1-1-1---1-1-1-------|x4
A|--1-1-1---0-0-0-------|
E|--0-0-0---------------|

e|-----------------------------------------|
B|-----------------------------------------|
G|--------6-6-6--1--4-4-4--9-9-9-9---------|
D|-1-1-1--6-6-6--1--4-4-4--9-9-9-9---------|
A|-1-1-1--4-4-4--0--2-2-2--7-7-7-7---------|
E|-0-0-0-----------------------------------|



Going out west where I belong.....
e|--------------------------------|
B|--------0-0--0-0--2-2-0---------|
G|-----1--------------------------|
D|-2-2----------------------------|x2
A|--------------------------------|
E|--------------------------------|

e|----------------------|
B|----------------------|
G|----------1-1-1-------|
D|--1-1-1---1-1-1-------|x4
A|--1-1-1---0-0-0-------|
E|--0-0-0---------------|


e|-----------------------------------------|
B|-----------------------------------------|
G|--------6-6-6--1--4-4-4--9-9-9-9---------|
D|-1-1-1--6-6-6--1--4-4-4--9-9-9-9---------|
A|-1-1-1--4-4-4--0--2-2-2--7-7-7-7---------|
E|-0-0-0-----------------------------------|

e|--------------------------------|
B|--------0-0--0-0--2-2-0---------|
G|-----1--------------------------|
D|-2-2----------------------------|x2
A|--------------------------------|
E|--------------------------------|


e|----------------------|
B|----------------------|
G|----------1-1-1-------|
D|--1-1-1---1-1-1-------|x4
A|--1-1-1---0-0-0-------|
E|--0-0-0---------------|

[ Tab from: http://www.guitartabs.cc/tabs/r/ramones/california_sun_tab_ver_6.html ]
e|-----------------------------------------|
B|-----------------------------------------|
G|--------6-6-6--1--4-4-4--9-9-9-9---------|
D|-1-1-1--6-6-6--1--4-4-4--9-9-9-9---------|
A|-1-1-1--4-4-4--0--2-2-2--7-7-7-7---------|
E|-0-0-0-----------------------------------|


In the warm california sun, hey!



e|-------------------|
B|-------------------|
G|-------------------|
D|-1-1-1-1-1-1-1-1---|
A|-1-1-1-1-1-1-1-1---|
E|-0-0-0-0-0-0-0-0---|

e|----------------------|
B|----------------------|
G|----------1-1-1-------|
D|--1-1-1---1-1-1-------|x4
A|--1-1-1---0-0-0-------|
E|--0-0-0---------------|


e|-----------------------------------------|
B|-----------------------------------------|
G|--------6-6-6--1--4-4-4--9-9-9-9---------|
D|-1-1-1--6-6-6--1--4-4-4--9-9-9-9---------|
A|-1-1-1--4-4-4--0--2-2-2--7-7-7-7---------|
E|-0-0-0-----------------------------------|


e|--------------------------------|
B|--------0-0--0-0--2-2-0---------|
G|-----1--------------------------|
D|-2-2----------------------------|x2
A|--------------------------------|
E|--------------------------------|



e|----------------------|
B|----------------------|
G|----------1-1-1-------|
D|--1-1-1---1-1-1-------|x4
A|--1-1-1---0-0-0-------|
E|--0-0-0---------------|


e|-----------------------------------------|
B|-----------------------------------------|
G|--------6-6-6--1--4-4-4--9-9-9-9---------|
D|-1-1-1--6-6-6--1--4-4-4--9-9-9-9---------|
A|-1-1-1--4-4-4--0--2-2-2--7-7-7-7---------|x2
E|-0-0-0-----------------------------------|


I have I live viedo of this song and they played just like this.

| /  slide up
| \  slide down
| h  hammer-on
| p  pull-off
| ~  vibrato
| +  harmonic
| x  Mute note
===============================================================================
Comments