Ramones - California Sun Chords & Tabs

 

California Sun Chords & Tabs

Ramones Chords & Tabs

Version: 4 Type: Tab 0 ratings
1 star 2 stars 3 stars 4 stars 5 stars
comments

California Sun Tab

   
TABBED BY ramones1314 
riff 1 
e------------------------
B------------------------
G------------------------
D-2-2-2-2-2-2-7-7-7-7-7-7
A-2-2-2-2-2-2-7-7-7-7-7-7
E-0-0-0-0-0-0-5-5-5-5-5-5 
riff 2 
e--------------------------------------
B--------------------------------------
G-------------6-6-6-6-6-6-----------9-9
D-2-2-2-2-2-2-6-6-6-6-6-6-7-7---9-9-9-9
A-2-2-2-2-2-2-4-4-4-4-4-4-7-7---9-9-7-7
E-0-0-0-0-0-0-------------5-5---7-7---- 
riff 3
e--------------0--
B-----0-2-2-0-0-0-
G----1------------
D-2-2-------------
A-----------------
E----------------- 

ORDER
RIFF1 3X
RIFF2 1X
PAUSE
RIFF3 1X
PAUSE
RIFF3 1X
RIFF1 3X
RIFF2 1X
PAUSE
RIFF3 1X
PAUSE
RIFF3 1X
RIFF2 2X
RIFF1 3X
RIFF2 1X
PAUSE
RIFF3 1X
PAUSE
RIFF3 1X
RIFF1 3X
RIFF2 1X
[ Tab from: http://www.guitartabs.cc/tabs/r/ramones/california_sun_tab_ver_4.html ]
Comments