Ramones - California Sun Chords & Tabs

 

California Sun Chords & Tabs

Ramones Chords & Tabs

Version: 3 Type: Tab 0 ratings
1 star 2 stars 3 stars 4 stars 5 stars
comments

California Sun Tab

any shit  DESTINYPUNK@HOTMAIL.COM

CALIFORNIA SUN
                    this song use the ampli whit a clean guitar and distorted 
INTRO                                             (ampli)       (no ampli clean)

6---------------------------------
5--2-2-2-2-2-2-2------------------  first part
4--2-2-2-2-2-2-2--2-2-2-2-2-2-2---
3--1-1-1-1-1-1-1--2-2-2-2-2-2-2---  x4
2-----------------2-2-2-2-2-2-2---
1---------------------------------
[ Tab from: http://www.guitartabs.cc/tabs/r/ramones/california_sun_tab_ver_3.html ]
6----------------------------------5-5-5--7-7-7----------
5--2-2-2-2-2-2-2--4-4-4-4-4-4-4-4--7-7-7--9-9-9--7-7-7---  second part
4--2-2-2-2-2-2-2--6-6-6-6-6-6-6-6--7-7-7--9-9-9--9-9-9---
3--1-1-1-1-1-1-1--6-6-6-6-6-6-6-6----------------9-9-9---
2--------------------------------------------------------
1--------------------------------------------------------

VERSE

6----------------------------
5----------------------------
4--2-2-----------------------
3------1---------------------  repeat a lot
2--------0-0--0-0--2-2---0---
1----------------------0-----

CHORUS

6-----------------5-5-5-5-5-5---
5--7-7-7-7-7-7-7--7-7-7-7-7-7---      in the chorus too repeat thye second part
4--9-9-9-9-9-9-9--7-7-7-7-7-7---      of the intro (its part of the chorus too)
3--9-9-9-9-9-9-9----------------  x4
2-------------------------------
1-------------------------------

then repeat another verse another chorus and then the interlude but just repeat 2
times the verse and then another chorus but the last part of the chorus repeat
for 2 times.
Comments