Ramones - California Sun Chords & Tabs

 

California Sun Chords & Tabs

Ramones Chords & Tabs

Version: 2 Type: Tab 0 ratings
1 star 2 stars 3 stars 4 stars 5 stars
comments

California Sun Tab

Part 1
e|-----------------------------------------------------------------|
B|-----------------------------------------------------------------|
G|-99999999--------------------------------------------------------|
D|-99999999-77777777-----------------------------------------------|
A|-77777777-77777777-----------------------------------------------|
E|----------55555555-----------------------------------------------|
Part 2
e|----------------------------------------------------------------|
B|----------------------------------------------------------------|
G|-99999999-66666666-------------9999-----------------------------|
D|-99999999-66666666-7777--9999--9999-----------------------------|
A|-77777777-44444444-7777--9999--7777-----------------------------|
E|-------------------5555--7777-----------------------------------|
Other Part 
e|-----------------0-----| 
B|-------0-0-0-2-2---0---| 
G|-----1-----------------| 
D|-2-2-------------------| 
A|-----------------------| 
E|-----------------------|
outro
e|----------------------------------------------------------------|
B|----------------------------------------------------------------|
G|-99999999-66666666-----------99999999-66666666-----------9999---|
D|-99999999-66666666-7777-9999-99999999-66666666-7777-9999-9999---|
A|-77777777-44444444-7777-9999-77777777-44444444-7777-9999-7777---|
E|-------------------5555-7777-------------------5555-7777--------|
[ Tab from: http://www.guitartabs.cc/tabs/r/ramones/california_sun_tab_ver_2.html ]
Comments