Ramones - California Sun Chords & Tabs

 

California Sun Chords & Tabs

Ramones Chords & Tabs

Version: 3 Type: Bass Tab

California Sun Bass Tab

   
Intro/Chorus
G|------------------------------------------------------------|
D|------------------------------------------------------------|
A|------------------------------------------------------------|
E|00000000-55555555-00000000-55555555-00000000-55555555-------|

G|--------------------------------------------------|
D|--------------------------------------------------|
A|--------------------------44444444-----------7-77-|
E|00000000-55555555-00000000----------5555-7777-----|

Bridge

G|-----------------------------------------------------------|
D|-----------------------------------------------------------|
A|-----------------------------------------------------------|
E|0000000000000000000000000000000000000000-55555555-00000000-|
[ Tab from: http://www.guitartabs.cc/tabs/r/ramones/california_sun_btab_ver_3.html ]
G|------------------------------------------------------------|
D|------------------------------------------------------------|
A|------------------------------------------------------44444-|
E|55555555-00000000-55555555-00000000-55555555-00000000-------|

G|-------------------|
D|-------------------|
A|444-----------7-77-|
E|-----5555-7777-----|

Outro

G|------------------------------------------------------------|
D|------------------------------------------------------------|
A|------------------------------------------------------------|
E|00000000-55555555-00000000-55555555-00000000-55555555-00000-|

G|-----------------------------------------------------------|
D|-----------------------------------------------------------|
A|----------------------44444444-----------7-77-777----------|
E|000-55555555-00000000----------5555-7777----------00000000-|

G|-------------------------|
D|-------------------------|
A|44444444-----------7-7-7-|
E|---------5555-7777-------|
Intro
Verse(no bass)
Chorus
Verse(no bass)
Chorus
Bridge
Verse(no bass)
Chorus
Outro