Ramones - Blitzkrieg Bop Chords & Tabs

 

Blitzkrieg Bop Chords & Tabs

Ramones Chords & Tabs

Version: 7 Type: Tab 0 ratings
1 star 2 stars 3 stars 4 stars 5 stars
comments

Blitzkrieg Bop Tab

Intro and verse (Note: when you have to hit 3 chords you have to use your third finger
and plant it on 777 and 999)
e|----------------------------------------------------------|
B|--------------------------7--------9--------9--9--9-------|
G|--------6---6-6-6-6-6-6---7--------9--------9--9--9-------|
D|--------7---7-7-7-7-7-7---7--------9--------9--9--9-------|
A|--------7---7-7-7-7-7-7---5--------7--------7--7--7-------|(x3)
E|--------5---5-5-5-5-5-5-----------------------------------|
                                                             Hey Ho, Let Go!
e|---------------------------------------                     E|-------------|
B|-----------7-7-7-7---------------------                     B|-------------|
G|--6-6-6-6--7-7-7-7-6--6-6-6-6-6-6-6----                     G|-6-6-6-6-6-6-|
D|--7-7-7-7--7-7-7-7-7--7-7-7-7-7-7-7----                     D|-7-7-7-7-7-7-|
A|--7-7-7-7--5-5-5-5-7--7-7-7-7-7-7-7----Hey Ho, Let's Go!(x3)A|-7-7-7-7-7-7-|
E|--5-5-5-5----------5--5-5-5-5-5-5-5----                     E|-5-5-5-5-5-5-|
                                                              (distortion)
e|------------------------------------------------------------------------|
B|-7--7-7-7-7-7-7-7-----7--7-7-7-7-7-7-7----6---6---6---6---6---6---6---6-|
G|-7--7-7-7-7-7-7-7-----7--7-7-7-7-7-7-7----7---7---7---7---7---7---7---7-|
D|-7--7-7-7-7-7-7-7-----7--7-7-7-7-7-7-7----7---7---7---7---7---7---7---7-|
A|-5--5-5-5-5-5-5-5-----5--5-5-5-5-5-5-5----7---7---7---7---7---7---7---7-|
E|------------------------------------------5---5---5---5---5---5---5---5-|

   Hey     Ho              Let's Go!       shoot 'em in the back,    now
e|----------------------------------------------------------------|
B|-7-7-7-----------------7--7-7-7-7-7-7-7---7-7-7-7-7-7-7-7-7-7-7-|
G|-7-7-7-6--6--6--6--6---7--7-7-7-7-7-7-7---7-7-7-7-7-7-7-7-7-7-7-|
D|-7-7-7-7--7--7--7--7---7--7-7-7-7-7-7-7---7-7-7-7-7-7-7-7-7-7-7-|
A|-5-5-5-7--7--7--7--7---5--5-5-5-5-5-5-5---5-5-5-5-5-5-5-5-5-5-5-|
E|-------5--5--5--5--5--------------------------------------------|

                         What  They Want,   I don't know. They're
e|--------------------------------------------------------|
B|-5--5--5--5--5--5--5--5-----7------9-----9--9--9--9-----|
G|-5--5--5--5--5--5--5--5-----7------9-----9--9--9--9-----|
D|-5--5--5--5--5--5--5--5-----7------9-----9--9--9--9-----|
A|-3--3--3--3--3--3--3--3-----5------7-----7--7--7--7-----|
E|--------------------------------------------------------|

   all  reved  up  and       ready-y   to  go
[ Tab from: http://www.guitartabs.cc/tabs/r/ramones/blitzkrieg_bop_tab_ver_7.html ]
Comments