Ramones - Blitzkrieg Bop Chords & Tabs

 

Blitzkrieg Bop Chords & Tabs

Ramones Chords & Tabs

Version: 6 Type: Tab 0 ratings
1 star 2 stars 3 stars 4 stars 5 stars
comments

Blitzkrieg Bop Tab

hey this is the ramones
it sounds good with 2 guitars, one with distortion and one normal

pt. 1
u play yhis whole song cept for "shoot em' in the back now" verse

|----------------------------         
|----------------------------
|-----------8-8-8-10-10-10-10    x3
|-8-8-8-8-8-8-8-8-10-10-10-10  
|-8-8-8-8-8-6-6-6-8--8--8--8-
|-6-6-6-6-6------------------

|----------------------------
|----------------------------
|-------8-8-8----------------
|-8-8-8-8-8-8-8-8-8----------
|-8-8-8-6-6-6-8-8-8----------
|-6-6-6-------6-6-6----------


[ Tab from: http://www.guitartabs.cc/tabs/r/ramones/blitzkrieg_bop_tab_ver_6.html ]
pt.2
you play this only for "shoot em' in the back now" verse

|----------------------------
|----------------------------
|-------8-8-8----------------
|-8-8-8-8-8-8-8-8-8----------
|-8-8-8-6-6-6-8-8-8----------
|-6-6-6-------6-6-6----------

|------------------------------------------------
|------------------------------------------------
|-8-8-8-8-8-8-8-8-8-8-8-5-5-5-5-5-5-5-5-8-8-10-10
|-8-8-8-8-8-8-8-8-8-8-8-5-5-5-5-5-5-5-5-8-8-10-10
|-6-6-6-6-6-6-6-6-6-6-6-3-3-3-3-3-3-3-3-6-6-8--8-
|------------------------------------------------

rate me
Comments