Ramones - Blitzkrieg Bop Chords & Tabs

 

Blitzkrieg Bop Chords & Tabs

Ramones Chords & Tabs

Version: 5 Type: Tab 0 ratings
1 star 2 stars 3 stars 4 stars 5 stars
comments

Blitzkrieg Bop Tab

   
Ramones - Blitzkrieg Bop

Tabbed by Stan

This is a great and easy song to play.
Enjoy!


intro/verse

e---------------------------
B--------------------------- 
G-------------7-7-7-9-9-9-9- 
D-7-7-7-7-7-7-7-7-7-9-9-9-9-
A-7-7-7-7-7-7-5-5-5-7-7-7-7-
E-5-5-5-5-5-5---------------

play three times then

e---------------------------
B---------------------------
G-------7-7-7---------------
D-7-7-7-7-7-7-7-7-7-7-7-7-7-
A-7-7-7-5-5-5-7-7-7-7-7-7-7-
E-5-5-5-------5-5-5-5-5-5-5-

chorus part 1:
[ Tab from: http://www.guitartabs.cc/tabs/r/ramones/blitzkrieg_bop_tab_ver_5.html ]
e-----------------------------------------------
B-----------------------------------------------
G-7-7-7-7-7-7-7-7-----------------7-7-7---------
D-7-7-7-7-7-7-7-7-7-7-7-7-7-7-7-7-7-7-7-7-7-7-7-
A-5-5-5-5-5-5-5-5-7-7-7-7-7-7-7-7-5-5-5-7-7-7-7-
E-----------------5-5-5-5-5-5-5-5-------5-5-5-5-

chorus pt 2

e-----------------------------------------------
B-----------------------------------------------
G-7-7-7-7-7-7-7-7-----------------7-7-7-9-9-9-9-
D-7-7-7-7-7-7-7-7-9-9-9-9-9-9-9-9-7-7-7-9-9-9-9-
A-5-5-5-5-5-5-5-5-9-9-9-9-9-9-9-9-5-5-5-7-7-7-7-
E-----------------7-7-7-7-7-7-7-7---------------

thats it. 

email me with any comments at stringcrasher@hotmail.com
Comments