Ramones - Blitzkrieg Bop Chords & Tabs

 

Blitzkrieg Bop Chords & Tabs

Ramones Chords & Tabs

Version: 1 Type: Tab 3 ratings
1 star 2 stars 3 stars 4 stars 5 stars
comments

Blitzkrieg Bop Tab

   
Artist .:. Ramones
Song .:. Lets go/hey ho/hey ho lets go
Tabbed .:. KURDT COBAIN (Jáke)

Tuning .:.
e
B
G
D
A
e

Key
~ = let ring


Intro/Chorus:
                              4x                     2x
e------------------------------- ----------------------
b------------------------------- ----------------------
g---9--9---4-4-4---5--5--------- --5-5-5---------4~----
d---9--9---4-4-4---5--5--5--5--- --5-5-5--5-5-5--4~----
a---7--7---2-2-2---3--3--5--5--- --3-3-3--5-5-5--2~----
e------------------------3--3--- ---------3-3-3--------


Verse:
                 4x
e------------------
b------------------
g---2~------5--7---
d---2~------5--7---
a---0~------3--5---
e------------------

[ Tab from: http://www.guitartabs.cc/tabs/r/ramones/blitzkrieg_bop_tab.html ]
Bridge/2nd Verse: (palm mute)
                                                                       2x
e------------------------------------------------------------------------
b------------------------------------------------------------------------
g---2-2-2-2-2-2-2-2--5-5-5-5-5-5-5-5--7-7-7-7-7-7-7-7--9-9-9-9-9-9-9-9---
d---2-2-2-2-2-2-2-2--5-5-5-5-5-5-5-5--7-7-7-7-7-7-7-7--9-9-9-9-9-9-9-9---
a---0-0-0-0-0-0-0-0--3-3-3-3-3-3-3-3--5-5-5-5-5-5-5-5--7-7-7-7-7-7-7-7---
e------------------------------------------------------------------------


2nd Chorus:
                              8x
e-------------------------------
b-------------------------------
g---9--9---4-4-4---5--5---------
d---9--9---4-4-4---5--5--5--5---
a---7--7---2-2-2---3--3--5--5---
e------------------------3--3---


Song Structure:

1. Intro
2. Vesre
3. Chorus
4. Vesre
5. Chorus
6. Bridge
7. 2nd Verse
8. Chorus
9. Verse
10.2nd Chorus

Hope you like it... i no i do =)
Comments