Ramones - Blitzkrieg Bop Chords & Tabs

 

Blitzkrieg Bop Chords & Tabs

Ramones Chords & Tabs

Version: 5 Type: Bass Tab 0 ratings
1 star 2 stars 3 stars 4 stars 5 stars
comments

Blitzkrieg Bop Bass Tab

Tablatura de NICO M. (nicokbbl@hotmail.com)

Artista: Ramones
Cancion: Blitzkrieg Bop
Album: The Ramones  (1976) 


1|---------------------------------------------------------|
2|---------------------------------------------------------|x3
3|-----------------5--5-7--7-7-----------------------------|
4|--5--5-5-5-5-5-5-----------------------------------------|



1|---------------------------------------------------------|
2|---------------------------------------------------------|
3|------7-7------------------------------------------------|
4|--5-5-----5----------------------------------------------|


1|---------------------------------------------------------|
2|---------------------------------------------------------|x3
3|-----------------5--5-7--7-7-----------------------------|
4|--5--5-5-5-5-5-5-----------------------------------------|



1|---------------------------------------------------------|
2|---------------------------------------------------------|
3|------7-7------------------------------------------------|
4|--5-5-----5----------------------------------------------|


  Hey ho, let's go
  Hey ho, let's go


1|---------------------------------------------------------|
2|---------------------------------------------------------|
3|---------------------------------------------------------|
4|--5-5-5-5-5-5-5-5-5-5-5-5-5-5-5-5------------------------|


  Hey ho, let's go
  Hey ho, let's go


1|---------------------------------------------------------|
2|---------------------------------------------------------|x3
3|-----------------5--5-7--7-7-----------------------------|
4|--5--5-5-5-5-5-5-----------------------------------------|


  They're forming in a straight line
  They're going through a tight wind
  The kids are losing their minds


1|---------------------------------------------------------|
2|---------------------------------------------------------|
3|------7-7------------------------------------------------|
4|--5-5-----5----------------------------------------------|


  The Blitzkrieg Bop


1|---------------------------------------------------------|
2|---------------------------------------------------------|x3
3|-----------------5--5-7--7-7-----------------------------|
4|--5--5-5-5-5-5-5-----------------------------------------|



  They're piling in the back seat
  They're generating steam heat
  Pulsating to the back beat


1|---------------------------------------------------------|
2|---------------------------------------------------------|
3|------7-7------------------------------------------------|
4|--5-5-----5----------------------------------------------|


  The Blitzkrieg Bop



1|---------------------------------------------------------|
2|---------------------------------------------------------|
3|----------------------------------5-5--------------------|
4|--7-7-7-7-7-7-7-7-5-5-5-5-5-5-5-5-----7-7----------------|


  Hey ho, let's go
  Shoot'em in the back now


1|---------------------------------------------------------|
2|---------------------------------------------------------|
3|----------------------------------------------5-5--5-7---|
4|--7-7-7-7-7-7-7-7-5-5-5-5-5-5-5-5-7-7-7-7-7-7------------|


  What they want, I don't know
  They're all reved up and ready to go


[ Tab from: http://www.guitartabs.cc/tabs/r/ramones/blitzkrieg_bop_btab_ver_5.html ]
1|---------------------------------------------------------|
2|---------------------------------------------------------|x3
3|-----------------5--5-7--7-7-----------------------------|
4|--5--5-5-5-5-5-5-----------------------------------------|


  They're forming in a straight line
  They're going through a tight wind
  The kids are losing their minds


1|---------------------------------------------------------|
2|---------------------------------------------------------|
3|------7-7------------------------------------------------|
4|--5-5-----5----------------------------------------------|


  The Blitzkrieg Bop


1|---------------------------------------------------------|
2|---------------------------------------------------------|x3
3|-----------------5--5-7--7-7-----------------------------|
4|--5--5-5-5-5-5-5-----------------------------------------|



  They're piling in the back seat
  They're generating steam heat
  Pulsating to the back beat


1|---------------------------------------------------------|
2|---------------------------------------------------------|
3|------7-7------------------------------------------------|
4|--5-5-----5----------------------------------------------|


  The Blitzkrieg Bop


1|---------------------------------------------------------|
2|---------------------------------------------------------|
3|----------------------------------5-5--------------------|
4|--7-7-7-7-7-7-7-7-5-5-5-5-5-5-5-5-----7-7----------------|


  Hey ho, let's go
  Shoot'em in the back now


1|---------------------------------------------------------|
2|---------------------------------------------------------|
3|----------------------------------------------5-5--5-7---|
4|--7-7-7-7-7-7-7-7-5-5-5-5-5-5-5-5-7-7-7-7-7-7------------|


  What they want, I don't know
  They're all reved up and ready to go


1|---------------------------------------------------------|
2|---------------------------------------------------------|x3
3|-----------------5--5-7--7-7-----------------------------|
4|--5--5-5-5-5-5-5-----------------------------------------|


  They're forming in a straight line
  They're going through a tight wind
  The kids are losing their minds


1|---------------------------------------------------------|
2|---------------------------------------------------------|
3|------7-7------------------------------------------------|
4|--5-5-----5----------------------------------------------|


  The Blitzkrieg Bop


1|---------------------------------------------------------|
2|---------------------------------------------------------|x3
3|-----------------5--5-7--7-7-----------------------------|
4|--5--5-5-5-5-5-5-----------------------------------------|



  They're piling in the back seat
  They're generating steam heat
  Pulsating to the back beat


1|---------------------------------------------------------|
2|---------------------------------------------------------|
3|------7-7------------------------------------------------|
4|--5-5-----5----------------------------------------------|


  The Blitzkrieg Bop


  Hey ho, let's go
  Hey ho, let's go


1|---------------------------------------------------------|
2|---------------------------------------------------------|
3|---------------------------------------------------------|
4|--5-5-5-5-5-5-5-5-5-5-5-5-5-5-5-5-5-5-5-5-5-5-5-5-5-5-5--|


  Hey ho, let's go
  Hey ho, let's go
Comments