Ramones - Blitzkrieg Bop Chords & Tabs

 

Blitzkrieg Bop Chords & Tabs

Ramones Chords & Tabs

Version: 3 Type: Bass Tab 0 ratings
1 star 2 stars 3 stars 4 stars 5 stars
comments

Blitzkrieg Bop Bass Tab

---------------------------------------------------------------------
                    Ramones - Blitzkrieg Bop
---------------------------------------------------------------------

Riff One:
G:----------------------------------|
D:----------------------------------|
A:-----------------5-5-5-7-7-7-7-7--|
E;-5-5-5-5-5-5-5-5------------------|

Riff Two:
G:----------------------------------|
D:----------------------------------|
A:---------5-5-5-5------------------|
E:-5-5-5-5---------5-5-5-5-5-5-5-5--|

Riff Three:
G:----------------------------------|
D:----------------------------------|
A:----------------------------------|
E:-5-5-5-5-5-5-5-5-5-5-5-5-5-5-5-5--|

Riff Four:
G:----------------------------------|
D:----------------------------------|
A:-5-5-5-5-5-5-5-5-5-5-5-5-5-5-5-5--|
E:----------------------------------|
[ Tab from: http://www.guitartabs.cc/tabs/r/ramones/blitzkrieg_bop_btab_ver_3.html ]
Riff Five:
G:----------------------------------|
D:----------------------------------|
A:-----------------5-5-5-5----------|
E:-5-5-5-5-5-5-5-5---------5-5-5-5--|

Riff Six:
G:----------------------------------|
D:----------------------------------|
A:-----------------5-5-5-5-7-7-7-7--|
E:-7-7-7-7-7-7-7-7------------------|

Order Of The Song:

Riff One:    (3 Times)
Riff Two:    (1 Time )
Riff One:    (3 Times)
Riff Two:    (1 Time )
Pause:
((After two "Hey, Ho! Lets Go",Play:))
Riff Three:  (2 Times)
Riff One:    (3 Times)
Riff Two:    (1 Time )
Riff One:    (3 Times)
Riff Two:    (1 Time )
Riff Four:   (1 Time )
Riff Five:   (1 Time )
Riff Four:   (1 Time )
Riff Six:    (1 Time )
Riff One:    (3 Times)
Riff Two:    (1 Time )
Riff One:    (3 Times)
Riff Two:    (1 Time )
Riff Four:   (1 Time )
Riff Five:   (1 Time )
Riff Four:   (1 Time )
Riff Six:    (1 Time )
Riff One:    (3 Times)
Riff Two:    (1 Time )
Riff One:    (3 Times)
Riff Two:    (1 Time )
Pause:
((After two "Hey, Ho! Lets Go",Play:))
Riff Three:  (2 Times)
End:-)
Comments