Ramones - Blitzkrieg Bop Chords & Tabs

 

Blitzkrieg Bop Chords & Tabs

Ramones Chords & Tabs

Version: 1 Type: Bass Tab 0 ratings
1 star 2 stars 3 stars 4 stars 5 stars
comments

Blitzkrieg Bop Bass Tab

   
Song: Blitzgrieg Bop 
Artist: The Ramones 
Tabbed By: gadkins@mac.com 
It's funny how sometimes even the simple stuff can get messed up. 
  

INTRO/END (During Hey, Ho! Stuff) 

Rest for two measures, 
then build up on the B 
with eight notes, like this: 

G|-----------------| 
D|-----------------| 
A|-----------------| 
E|-7-7-7-7-7-7-7-7-| 
  

VERSE 

G|-----------------|-----------------| 
D|-----------------|-----------------| 
A|-----------------|-7-7-(7)-9-9-9-9-| 
E|-7-7-7-7-7-7-7-7-|-----------------| X3 
[ Tab from: http://www.guitartabs.cc/tabs/r/ramones/blitzkrieg_bop_btab.html ]
G|-----------------|-----------------| 
D|-----------------|-----------------| 
A|---------7-7-7-7-|-----------------| 
E|-7-7-7-7---------|-7-7-7-7-7-7-7-7-| X1 
  

CHORUS 

G|-----------------|-----------------| 
D|-----------------|-----------------| 
A|-7-7-7-7-7-7-7-7-|---------7-------| 
E|-----------------|-7-7-7-7-----7---| 

G|-----------------|-----------------| 
D|-----------------|-----------------| 
A|-7-7-7-7-7-7-7-7-|---------7---9---| 
E|-----------------|-9-9-9-9---------| 
  

Something like that. Just a look at the 
root note and pound out those eight notes. 
Gabba, Gabba, Hey! 


Comments