Ramones - Blitzkreig Bop Chords & Tabs

 

Blitzkreig Bop Chords & Tabs

Ramones Chords & Tabs

Version: 2 Type: Tab 1 rating
1 star 2 stars 3 stars 4 stars 5 stars
comments

Blitzkreig Bop Tab

   
#----------------------------------PLEASE NOTE---------------------------------#
#This file is the author's own work and represents their interpretation of the #
#song. You may only use this file for private study, scholarship, or research. #
#------------------------------------------------------------------------------#

Submitted By: Newfie91

Band: The Ramones
Song: Blitzkreig Bop
Album: The Ramones

Intro

E|--------------------------------|X3 E|-----------------------------------------|
B|--------------------------------|   B|-----------------------------------------|
G|-----------------7-7-7-9--9-9-9-|   G|-----------------7-7-7-7-----------------|
D|-7-7-7-7-7-7-7-7-7-7-7-9--9-9-9-|   D|-7-7-7-7-7-7-7-7-7-7-7-7-7-7-7-7-7-7-7-7-|
A|-7-7-7-7-7-7-7-7-5-5-5-7--7-7-7-|   A|-7-7-7-7-7-7-7-7-5-5-5-5-7-7-7-7-7-7-7-7-|
E|-5-5-5-5-5-5-5-5----------------|   E|-5-5-5-5-5-5-5-5---------5-5-5-5-5-5-5-5-|

Bridge

E|---------------------------------|
B|---------------------------------|
G|---------------------------------|
D|-7-7-7-7-7-7-7-7-7-7-7-7-7-7-7-7-|
A|-7-7-7-7-7-7-7-7-7-7-7-7-7-7-7-7-|
E|-5-5-5-5-5-5-5-5-5-5-5-5-5-5-5-5-|

Verse
[ Tab from: http://www.guitartabs.cc/tabs/r/ramones/blitzkreig_bop_tab_ver_2.html ]
E|-------------------------------------------------------------------|X3
B|-------------------------------------------------------------------|
G|-----------------7-7-7-7-9--9-9-9----------7-7-7-7-----------------|
D|-7-7-7-7-7-7-7-7-7-7-7-7-9--9-9-9--7-7-7-7-7-7-7-7-7-7-7-7-7-7-7-7-|
A|-7-7-7-7-7-7-7-7-5-5-5-5-7--7-7-7--7-7-7-7-5-5-5-5-7-7-7-7-7-7-7-7-|
E|-5-5-5-5-5-5-5-5-------------------5-5-5-5---------5-5-5-5-5-5-5-5-|

Chorus

E|----------------------------------------------------------------|
B|----------------------------------------------------------------|
G|-7-7-7-7-7-7-7-7-7-7-7-7-7-7-7-7-----------------7-7-7----------|
D|-7-7-7-7-7-7-7-7-7-7-7-7-7-7-7-7-7-7-7-7-7-7-7-7-7-7-7-7--7-7-7-|
A|-5-5-5-5-5-5-5-5-5-5-5-5-5-5-5-5-7-7-7-7-7-7-7-7-5-5-5-7--7-7-7-|
E|---------------------------------5-5-5-5-5-5-5-5-------5--5-5-5-|

E|----------------------------------------------------------------|
B|----------------------------------------------------------------|
G|-7-7-7-7-7-7-7-7-7-7-7-7-7-7-7-7-----------------7-7-7-9--9-9-9-|
D|-7-7-7-7-7-7-7-7-7-7-7-7-7-7-7-7-9-9-9-9-9-9-9-9-7-7-7-9--9-9-9-|
A|-5-5-5-5-5-5-5-5-5-5-5-5-5-5-5-5-9-9-9-9-9-9-9-9-5-5-5-7--7-7-7-|
E|---------------------------------7-7-7-7-7-7-7-7----------------|

Order Of Song
-------------
Intro X2
Bridge
Verse
Chorus
Verse
Chours
Verse
Bridge
Comments