Ramones - Beat On The Brat Chords & Tabs

 

Beat On The Brat Chords & Tabs

Ramones Chords & Tabs

Version: 1 Type: Bass Tab 0 ratings
1 star 2 stars 3 stars 4 stars 5 stars
comments

Beat On The Brat Bass Tab

Title:  Beat on the Brat
Band:  The Ramones
Tabbed by:  Martin Cox (mcox@indy.net)

The original tab on the archive (by Jesse Merrithew)  was incorrect - even
though it technically sounded in tune with the song, it was closer to the
guitar than the bass.  Here's the correct transcription.  Play the whole
thing twice - it's easy.  Hey, it's a Ramones song, it only has four notes.


Intro/Outro
G|----------------|----------------|---------------|
D|----------------|----------------|---------------|
A|-2-2-2-2-2-2----|-2-2-2-2-2-2----|-2-2-----2-2---|
E|--------------0-|--------------0-|-----0-------0-|


Verse (play twice, after second time repeat "oh yeah, oh yeah" part)

G|-----------------|----------------|----------------|----------------| 
D|-----------------|----------------|----------------|----------------| 
A|-2-2-2-2-2-2-2-2-|2-2-2-2-2-2-2-2-|2-2-2-2-2-2-2-2-|2-2-2-2-2-2-2-2-|
E|-----------------|----------------|----------------|----------------|

G|-----------------|----------------|----------------|----------------| 
D|-----------------|----------------|----------------|----------------| 
A|-2-2-2-2-2-2-2-2-|2-2-2-2-2-2-2-2-|----------------|----------------|
E|-----------------|----------------|-0--0-0-0-0-0-0-|-2--2-2-2-2-2-2-|


Chorus

G|-----------------|----------------|----------------|----------------|
D|-----------------|----------------|----------------|----------------|
A|-2-2-2-2-2-2-2-2-|2-2-2-2-2-2-2-2-|----------------|----------------|
E|-----------------|----------------|-5--5-5-5-5-5-5-|-2--2-2-2-2-2-2-|
[ Tab from: http://www.guitartabs.cc/tabs/r/ramones/beat_on_the_brat_btab.html ]
G|----------------|----------------|----------------|----------------|
D|----------------|----------------|----------------|----------------|
A|----------------|----------------|-2--2-2-2-2-2-2-|----------------|
E|-5--5-5-5-5-5-5-|-2--2-2-2-2-2-2-|----------------|-0--0-0-0-0-0-0-|

G|----------------|----------------|-----------------|----------------|
D|----------------|----------------|-----------------|----------------|
A|-2--2-2-2-2-2-2-|----------------|-2-2-2-2-2-2-2-2-|2-2-2-2-2-2-2-2-|
E|----------------|-0--0-0-0-0-0-0-|-----------------|----------------|

G|-----------------|----------------|----------------|----------------|
D|-----------------|----------------|----------------|----------------|
A|-2-2-2-2-2-2-2-2-|----------------|----------------|-2--2-2-2-2-2-2-|
E|-----------------|-5--5-5-5-5-5-5-|-2--2-2-2-2-2-2-|----------------|

G|----------------|----------------|----------------|-----------------|
D|----------------|----------------|----------------|-----------------|
A|----------------|-2--2-2-2-2-2-2-|----------------|-2-2-2-2-2-2-2-2-|
E|-0--0-0-0-0-0-0-|----------------|-0--0-0-0-0-0-0-|-----------------|

G|-----------------|-----------------|----------------|----------------|
D|-----------------|-----------------|----------------|----------------|
A|-2-2-2-2-2-2-2-2-|-2-2-2-2-2-2-2-2-|----------------|----------------|
E|-----------------|-----------------|-5--5-5-5-5-5-5-|-2--2-2-2-2-2-2-|

G|----------------|----------------|
D|----------------|----------------|
A|----------------|----------------|
E|-5--5-5-5-5-5-5-|-2--2-2-2-2-2-2-|

Now go back to the intro and start over.  Then play the intro once more
and end the song on the last note.

Comments