Ramones - 53rd And 3rd Chords & Tabs

 

53rd And 3rd Chords & Tabs

Ramones Chords & Tabs

Version: 2 Type: Tab 0 ratings
1 star 2 stars 3 stars 4 stars 5 stars
comments

53rd And 3rd Tab

I saw the tab for this song, and after tring to play it i found out that it was
really off. So then i figuered this one out.

this song is simple and a good song.

INTRO

E|----------------------------|
B|----------------------------|
G|--------------X--7-7-X------|
D|----------2---X--7-7-X-7-7--|
A|--2-2-2-2-2-2-X--5-5-X-7-7--|
e|--0-0-0-0-0-0-X------X-5-5--|
P.M . . . .   .


E|----------------------------|
B|----------------------------|
G|--------------X--7-7-X------|
D|----------2---X--7-7-X-7-7--|
A|--2-2-2-2-2-2-X--5-5-X-7-7--|
e|--0-0-0-0-0-0-X------X-5-5--|
    . . . .   .

VERSE

E|----------------------------|
B|----------------------------|
G|--------------X--7-7-X------|
D|----------2---X--7-7-X-7-7--|
A|--2-2-2-2-2-2-X--5-5-X-7-7--|
e|--0-0-0-0-0-0-X------X-5-5--|
    . . . .   . 

IF YOU THINK YOU CAN WELL COME OM MAN


E|----------------------------|
B|----------------------------|
G|--------------X--7-7-X------|
D|----------2---X--7-7-X-7-7--|
A|--2-2-2-2-2-2-X--5-5-X-7-7--|
e|--0-0-0-0-0-0-X------X-5-5--|
    . . . .   .

I WAS A GREEN BERET IN VIETNAM


E|----------------------------|
B|----------------------------|
G|--------------X--7-7-X------|
D|----------2---X--7-7-X-7-7--|
A|--2-2-2-2-2-2-X--5-5-X-7-7--|
e|--0-0-0-0-0-0-X------X-5-5--|
    . . . .   .

NO MORE OF YOUR FAIRY STORIES


E|----------------------------|
B|----------------------------|
G|--------------X--7-7-X------|
D|----------2---X--7-7-X-7-7--|
A|--2-2-2-2-2-2-X--5-5-X-7-7--|
e|--0-0-0-0-0-0-X------X-5-5--|
    . . . .   .  

CAUSE I GOT MY OTHER WORRIES

CHORUS

E|------------------||------------------|
B|------------------||------------------|
G|-7-7-7-7----------||------------------|
D|-7-7-7-7-7-7-7-7--||-5-5-5-5-7-7-7-7--|
A|-5-5-5-5-7-7-7-7--||-5-5-5-5-7-7-7-7--|
e|---------5-5-5-5--||-3-3-3-3-5-5-5-5--|
53RD AND 3RD STANDING ON THE STREET 

E|------------------||------------------|
B|------------------||------------------|
G|-7-7-7-7----------||------------------|
D|-7-7-7-7-7-7-7-7--||-5-5-5-5-7-7-7-7--|
A|-5-5-5-5-7-7-7-7--||-5-5-5-5-7-7-7-7--|
e|---------5-5-5-5--||-3-3-3-3-5-5-5-5--|
53RD AND 3RD I'M TRYING TO TURN A TRICK

E|------------------||------------------|
B|------------------||------------------|
G|-7-7-7-7----------||------------------|
D|-7-7-7-7-7-7-7-7--||-5-5-5-5-7-7-7-7--|
A|-5-5-5-5-7-7-7-7--||-5-5-5-5-7-7-7-7--|
e|---------5-5-5-5--||-3-3-3-3-5-5-5-5--|
53RD AND 3RD YOU'RE THE ONE THEY'ED NEVER PICK
[ Tab from: http://www.guitartabs.cc/tabs/r/ramones/53rd_and_3rd_tab_ver_2.html ]
E|------------------||------------------|
B|------------------||------------------|
G|-7-7-7-7----------||------------------|
D|-7-7-7-7-7-7-7-7--||-5-5-5-5-7-7-7-7--|
A|-5-5-5-5-7-7-7-7--||-5-5-5-5-7-7-7-7--|
e|---------5-5-5-5--||-3-3-3-3-5-5-5-5--|
53RD AND 3RD GONNA MAKE YOU FELL SICK

INTERCLUDE

E|---------------------------|
B|---------------------------|
G|---------------------------|
D|-9-9-9-9-9-9-9-9--7--7--7--|
A|-9-9-9-9-9-9-9-9--7--7--7--|
e|-7-7-7-7-7-7-7-7--5--5--5--|
THEN I PULLED OUT MY RAZORBLADE

E|---------------------------|
B|---------------------------|
G|---------------------------|
D|-9-9-9-9-9-9-9-9--7--7--7--|
A|-9-9-9-9-9-9-9-9--7--7--7--|
e|-7-7-7-7-7-7-7-7--5--5--5--|
THEN I DID WHAT GOD FORBADE

E|---------------------------|
B|---------------------------|
G|---------------------------|
D|-5-5-5-5-5-5-5-5--7--7--7--|
A|-5-5-5-5-5-5-5-5--7--7--7--|
e|-3-3-3-3-3-3-3-3--5--5--5--|
NOW THE COPS ARE AFTER ME

E|---------------------------|
B|---------------------------|
G|---------------------------|
D|-5-5-5-5-5-5-5-5--7--7--7--|
A|-5-5-5-5-5-5-5-5--7--7--7--|
e|-3-3-3-3-3-3-3-3--5--5--5--|
BUT I PROVED THAT I'M NO SISSY


LAST VERSE

E|------------------||------------------|
B|------------------||------------------|
G|-9-9-9-9----------||------------------|
D|-9-9-9-9-9-9-9-9--||-7-7-7-7-9-9-9-9--|
A|-7-7-7-7-9-9-9-9--||-7-7-7-7-9-9-9-9--|
e|---------7-7-7-7--||-5-5-5-5-7-7-7-7--|
53RD AND 3RD STANDING ON THE STREET

E|------------------||------------------|
B|------------------||------------------|
G|-9-9-9-9----------||------------------|
D|-9-9-9-9-9-9-9-9--||-7-7-7-7-9-9-9-9--|
A|-7-7-7-7-9-9-9-9--||-7-7-7-7-9-9-9-9--|
e|---------7-7-7-7--||-5-5-5-5-7-7-7-7--|
53RD AND 3RD I'M TRING TO TURN A TRICK

E|------------------||------------------|
B|------------------||------------------|
G|-9-9-9-9----------||------------------|
D|-9-9-9-9-9-9-9-9--||-7-7-7-7-9-9-9-9--|
A|-7-7-7-7-9-9-9-9--||-7-7-7-7-9-9-9-9--|
e|---------7-7-7-7--||-5-5-5-5-7-7-7-7--|
53RD AND 3RD YOU'RE THE ONE THEY'ED NEVER PICK

E|------------------||------------------|
B|------------------||------------------|
G|-9-9-9-9----------||------------------|
D|-9-9-9-9-9-9-9-9--||-7-7-7-7-9-9-9-9--|
A|-7-7-7-7-9-9-9-9--||-7-7-7-7-9-9-9-9--|
e|---------7-7-7-7--||-5-5-5-5-7-7-7-7--|
53RD AND 3RD GONNA MAKE YOU FELL SICK

REPEAT WHEN NESSESARY AND LISTEN TO THE SONG TO GET THE RYTHEM AND IT WILL SOUND JUST LIKE THE SONG 
ANY SHIT.....NUMBER666BLADER@AOL.COM
Comments