Ramones - 53rd And 3rd Chords & Tabs

 

Ramones Chords & Tabs

Version: 1 Type: Tab 0 ratings
1 star 2 stars 3 stars 4 stars 5 stars
comments

53rd And 3rd Tab

   
Tuning: Standard
Chords: E,A,D,G,B

e|--------------------------
B|-------------3-33---2-22--
G|- 1-1-1-1-1--2-22---2-22--
D|--2-2-2-2-2--0-00---2-22 -
A|--2-2-2-2-2---------0-00--
E|--0-0-0-0-0---------------
[ Tab from: http://www.guitartabs.cc/tabs/r/ramones/53rd_and_3rd_tab.html ]
e|--------------------------
B|--777-7-------------------
G|--777-7-6-66-44-44---666--
D|--777-7-7-77-55-55---777--
A|--555-5-7-77-55-55---777--
E|--555-5-5-55-33-33---555--
    '53 & 3rd--standing
e|--------------------------------------------------|
B|--------------------------------------------------|
G|--44444--22222---44444--22222--4444-666--4444-666-|
D|--44444--22222---44444--22222--5555-777--5555-777-|
A|--22222--00000---22222--00000--5555-777--5555-777-|
E|-------------------------------3333-555--3333-555-|
   'Then' 'Razor                 
e|-----------------------|
B|-999-9-----------------|
G|-999-9-8-88-66-66-8-88-|
D|-999-9-9-99-77-77-9-99-|
A|-777-7-9-99-77-77-9-99-|
E|-777-7-7-77-55-55-7-77-|
(chorus up a whole step)

Repeat begining to fade.

Note: Ramones use Barre Chords, not power chords.  All Ramones songs are played
by using downstrokes only. Their music is not that simple while being played
properly, especially to the live versions.


Lyrics: 

If you think you can, come on then 
I was a Green Beret in Viet Nam 
No more of your fairy stories 
Cause I got my other worries. 

53rd and 3rd 
Standing on the street 
53rd and 3rd 
I'm tryin' to turn a trick 
53rd and 3rd 
You're the one they never pick 
53rd and 3rd 
Don't make you feel sick ? 

Then I took out my razor blade 
Then I did what God forbade 
Now the cops are after me 
But I proved that I'm no sissy.
Comments