Ramones - 53rd And 3rd Chords & Tabs

 

53rd And 3rd Chords & Tabs

Ramones Chords & Tabs

Version: 3 Type: Bass Tab

53rd And 3rd Bass Tab

  


 -intro- (repeat alot of times)
G |--------------------------------------------||
D |-------------------------6-6-6-6-6-6--------||
A |-6-6-6-6-6-6-4-4-4-4-4-4--------------------||
E |--------------------------------------------||

 -chorus-
G |--------------------------------------------||
D |---------6-6-6-6-5-5-5-5-6-6-6-6------------||
A |-5-5-5-5------------------------------------||
E |--------------------------------------------|| x4
[ Tab from: http://www.guitartabs.cc/tabs/r/ramones/53rd_and_3rd_btab_ver_3.html ]
 -"Then I took out my razorblade..."-
G |--------------------------------------------||
D |--------------------------------------------||
A |--------------------------------------------||
E |-6-6-6-6-6-6-6-6-4-4-4-4-4-4-4-4------------|| x2

 -"Now the cops are after me..." -
G |--------------------------------------------||
D |--------------------------------------------||
A |--------------------------------------------||
E |-3-3-3-3-3-3-3-3-5-5-5-5-5-5-5-5------------|| x2

  -End Chorus -
G |--------------------------------------------||
D |---------9-9-9-9-7-7-7-7-9-9-9-9------------||
A |-7-7-7-7------------------------------------||
E |--------------------------------------------|| x4

 questions, complaints, got nothing else to do, ect....email me >MAYLINZIPPORAID@yahoo.com<