Rammstein - Zwitter Chords & Tabs

 

Zwitter Chords & Tabs

Rammstein Chords & Tabs

Version: 6 Type: Tab 0 ratings
1 star 2 stars 3 stars 4 stars 5 stars
comments

Zwitter Tab

   
[Tabbed by Daes - Airax.net]
[ARTIST]: Rammstein
[ALBUM]: Mutter
[SONG]: Zwitter
[TUNNING]: Drop-D

[AUTHORS NOTES]:
This is my first tab, its a fun song to play. Enjoy!

[FIRST AND SECOND ENDINGS]:
If you don't understand the 1st and second ending concept, i'll explain it.
It's fairly simple, the first time you play through the 1st ending. Repeat back
to the Astirks (*), then when you get the 1st ending, skip it and play to the
second ending.

[TAB]:
 [MAIN RIFF]:
E||------------------|-------------------|
B||------------------|-------------------|
G||------------------|-------------------|
D||-0-0-0-0--0-0-5-3-|-0-0-0-0--0-0--1-0-|
A||-0-0-0-0--0-0-5-3-|-0-0-0-0--0-0--1-0-|
D||-0-0-0-0--0-0-5-3-|-0-0-0-0--0-0--1-0-|
[ Tab from: http://www.guitartabs.cc/tabs/r/rammstein/zwitter_tab_ver_6.html ]
                                         ____1st Ending_______________________
 [SECOND RIFF]:                         /                |                    \
E||------------------|-----------------|-----------------|-------------------||
B||------------------|-----------------|-----------------|-------------------||
G||*-8-8-8-8-8-8-8-8-|-5-5-5-5-5-5-5-5-|-3-3-3-3-3-3-3-3-|-3-3-3-3----------*||
D||*-8-8-8-8-8-8-8-8-|-5-5-5-5-5-5-5-5-|-3-3-3-3-3-3-3-3-|-3-3-3-3------1-3-*||
A||--6-6-6-6-6-6-6-6-|-3-3-3-3-3-3-3-3-|-1-1-1-1-1-1-1-1-|-1-1-1-1--1-3------||
D||------------------|-----------------|-----------------|-------------------||

  ___2nd Ending____        
 /                 \      1
E|-----------------|------------|
B|-----------------|----O--/----|
G|-----------------|------/-----|
D|-5-5-5-5-5-5-5-5-|-----/------|
A|-5-5-5-5-5-5-5-5-|----/--O----|
D|-5-5-5-5-5-5-5-5-|------------|
Comments