Rammstein - Zwitter Chords & Tabs

 

Zwitter Chords & Tabs

Rammstein Chords & Tabs

Version: 3 Type: Tab 3 ratings
1 star 2 stars 3 stars 4 stars 5 stars
comments

Zwitter Tab

   
Intro:

D|---------------------------------|
A|---------------------------------|
D|-0-0-0-0-0-0-5-3-0-0-0-0-0-0-1-0-|

Then the Heavy Part:

D|----------------------------------|
A|----------------------------------|
D|-0-0-0-0-0-0-5-3-0-0-0-0-1-3--1-0-|

Chorus:
[ Tab from: http://www.guitartabs.cc/tabs/r/rammstein/zwitter_tab_ver_3.html ]
G|-3-3-3-3-3-3-3-3-------------------------------------------------|
D|-1-1-1-1-1-1-1-1-5-5-5-5-5-5-5-5-3-3-3-3-3-3-3-3-3-3-3-3-----1-3-|
A|-----------------3-3-3-3-3-3-3-3-1-1-1-1-1-1-1-1-1-1-1-1-1-3-----|
D|-----------------------------------------------------------------|

G|-3-3-3-3-3-3-3-3-5-5-5-5-5-5-5-5-------------------------|
D|-1-1-1-1-1-1-1-1-5-5-5-5-5-5-5-5-5-5-5-5-5-5-5-5-5-5-5-5-|
A|-----------------3-3-3-3-3-3-3-3-5-5-5-5-5-5-5-5-5-5-5-5-|
D|---------------------------------5-5-5-5-5-5-5-5-5-5-5-5-|

There ya go. I got this out of the book so this is 100% correct.
Comments