Rammstein - Zwitter Chords & Tabs

 

Zwitter Chords & Tabs

Rammstein Chords & Tabs

Version: 2 Type: Tab 0 ratings
1 star 2 stars 3 stars 4 stars 5 stars
comments

Zwitter Tab

   
                                      Rammstein- Zwitter 

                                    From the Album: Mutter
                                    ----------------------

                                       Tabbed By: J.E.
                                       ---------------


Drop D Tuning (D A D G B e)



Rhythm Figure 1 (Intro and Verse)

  D5         G5 F5 D5        Eb5 D5
e|----------------|----------------|
B|----------------|----------------|
G|----------------|----------------|
D|0-0-0-0-0-0-5-3-|0-0-0-0-0-1-1-0-|
A|0-0-0-0-0-0-5-3-|0-0-0-0-0-1-1-0-|
D|0-0-0-0-0-0-5-3-|0-0-0-0-0-1-1-0-|
  pm.........      pm.....


Rhythm Figure 2 (Chorus)
[ Tab from: http://www.guitartabs.cc/tabs/r/rammstein/zwitter_tab_ver_2.html ]
  Eb5              C5               Bb5             
e|----------------|----------------|----------------|-----------------|
B|----------------|----------------|----------------|-----------------|
G|8-8-8-8-8-8-8-8-|5-5-5-5-5-5-5-5-|3-3-3-3-3-3-3-3-|3-3-3-3----------|
D|8-8-8-8-8-8-8-8-|5-5-5-5-5-5-5-5-|3-3-3-3-3-3-3-3-|3-3-3-3-----1-3--|
A|6-6-6-6-6-6-6-6-|3-3-3-3-3-3-3-3-|1-1-1-1-1-1-1-1-|1-1-1-1-1-3------|
D|----------------|----------------|----------------|-----------------|


  Eb5              C5               G5
e|----------------|----------------|----------------|----------------|
B|----------------|----------------|----------------|----------------|
G|8-8-8-8-8-8-8-8-|5-5-5-5-5-5-5-5-|----------------|----------------|
D|8-8-8-8-8-8-8-8-|5-5-5-5-5-5-5-5-|5-5-5-5-5-5-5-5-|5-5-5-5-5-5-5-5-|
A|6-6-6-6-6-6-6-6-|3-3-3-3-3-3-3-3-|5-5-5-5-5-5-5-5-|5-5-5-5-5-5-5-5-|
D|----------------|----------------|5-5-5-5-5-5-5-5-|5-5-5-5-5-5-5-5-|




Intro-     Fig. 1
Verses-    Fig. 1
Choruses-  Fig. 2





Requests? Mail to: NubioSlepp@netscape.net
Comments