Rammstein - Wollt Ihr Das Bett In Flammen Sehen Chords & Tabs

 

Wollt Ihr Das Bett In Flammen Sehen Chords & Tabs

Rammstein Chords & Tabs

Version: 3 Type: Tab 0 ratings
1 star 2 stars 3 stars 4 stars 5 stars
comments

Wollt Ihr Das Bett In Flammen Sehen Tab

   
Titel:  Wollt Ihr Das Bett In Flammen Sehen?
Artist: Rammstein
Album:  Herzeleid
Tuning: D-A-D-G-B-E

PM - palm muting
/\ - slide up/down


Intro
Part1
|(guitar1)
|-------------------------------|-----------------[3x]--------------|
|-------------------------------|-----------------------------------|
|--7---8---7-----5-/-7---8---7--|---5-/-7---8---7-----5-/-7---8---7-|
|--7---8---7-----5-/-7---8---7--|---5-/-7---8---7-----5-/-7---8---7-|
|--5---6---5-----3-/-5---6---5--|---3-/-5---6---5-----3-/-5---6---5-|
|------------0-0-------0---0---0|-0-------0---0---0-0-------0---0---|
|PM---------       PM---------        PM---------       PM---------
|(guitar2)                                                           
|-------------------------------|-----------------[3x]--------------|
|-------------------------------|-----------------------------------|
|--7---8---7-----5-/-7---8---7--|---5-/-7---8---7-----5-/-7---8---7-|
|--7---8---7-----5-/-7---8---7--|---5-/-7---8---7-----5-/-7---8---7-|
|--5---6---5-----3-/-5---6---5--|---3-/-5---6---5-----3-/-5---6---5-|
|------------0-0-------0---0---0|-0-------0---0---0-0-------0---0---|
 PM---------       PM---------        PM---------       PM---------

Part2
|(guitar1)
|-------------------------------|
|-------------------------------|
|-7---8---7-----5-/-7---8---7---|
|-7---8---7-----5-/-7---8---7---|
|-5---6---5-----3-/-5---6---5---|
|-----------0-0-------0---0---0-|
PM---------       PM---------
|(guitar2)                        [1X]   
|-------------------------------|
|-------------------------------|
|-5-5-5-5-5-5-5-5-5-5-5-5-5-5-5-|
|-3-3-3-3-3-3-3-3-3-3-3-3-3-3-3-|
|-------------------------------|
|-------------------------------|

Part3
|(guitar1)
|------------------------------------|------------------------------------|
|------------------------------------|------------------------------------|
|--5-/-7---8---7-----5-/-7---8---7---|--5-/-7---8---7-----5-/-7---8---7---|
|--5-/-7---8---7-----5-/-7---8---7---|--5-/-7---8---7-----5-/-7---8---7---|
|--3-/-5---6---5-----3-/-5---6---5---|--3-/-5---6---5-----3-/-5---6---5---|
|0-------0---0---0-0-------0---0---0-|0-------0---0---0-0-------0---0---0-|
|    PM---------       PM---------        PM---------       PM---------
|                                                                 
|(guitar2)                                                            [3X]
|------------------------------------|------------------------------------|
|------------------------------------|------------------------------------|
|--5-/-7---8---7-----5-/-7---8---7---|----5-5-5-5-5-5-5-5-5-5-5-5-5-5-5---|
|--5-/-7---8---7-----5-/-7---8---7---|--5-3-3-3-3-3-3-3-3-3-3-3-3-3-3-3---|
|--3-/-5---6---5-----3-/-5---6---5---|--3---------------------------------|
|0-------0---0---0-0-------0---0---0-|----------------------------------0-|
     PM---------       PM---------




Interlude
|(guitar1)
|----------------------------------|
|----------------------------------|
|-----5/7--------------------------|
|-----5/7--------------------------|
|-----3/5--------------------------|
|-0-0------------------------------|
|     PM-
|
|(guitar2)
|----------------------------------|
|----------------------------------|
|-----5/7--------------------------|
|-----5/7--------------------------|
|-----3/5--------------------------|
|-0-0------------------------------|
      PM-




Verse
(guitar1)
|-----------------------------------------------------------------------|
|-----------------------------------------------------------------------|
|-5-/-7---8---7-----5-/-7---8---7-----5-/-7---8---7-----5-/-7---8---7---|4x
|-5-/-7---8---7-----5-/-7---8---7-----5-/-7---8---7-----5-/-7---8---7---|
|-3-/-5---6---5-----3-/-5---6---5-----3-/-5---6---5-----3-/-5---6---5---|
|-------0---0---0-0-------0---0---0-0-------0---0---0-0-------0---0---0-|
    PM---------       PM---------       PM---------       PM---------




Chorus
Part1
|(guitar1)
|-----------------------------------|
|-----------------------------------|
|-5-/-7---8---7-----5-/-7---8---7---|
|-5-/-7---8---7-----5-/-7---8---7---|
|-3-/-5---6---5-----3-/-5---6---5---|
|-------0---0---0-0-------0---0---0-|
|   PM---------       PM---------
|(guitar2)                       [1X]   
|-------------------------------|
|-------------------------------|
|-5-5-5-5-5-5-5-5-5-5-5-5-5-5-5-|
|-3-3-3-3-3-3-3-3-3-3-3-3-3-3-3-|
|-------------------------------|
|-------------------------------|

Part2
|(guitar1)
|------------------------------------|------------------------------------|
|------------------------------------|------------------------------------|
|--5-/-7---8---7-----5-/-7---8---7---|--5-/-7---8---7-----5-/-7---8---7---|
|--5-/-7---8---7-----5-/-7---8---7---|--5-/-7---8---7-----5-/-7---8---7---|
|--3-/-5---6---5-----3-/-5---6---5---|--3-/-5---6---5-----3-/-5---6---5---|
|0-------0---0---0-0-------0---0---0-|0-------0---0---0-0-------0---0---0-|
|    PM---------       PM---------        PM---------       PM---------
|(guitar2)                                                            [2X]
|------------------------------------|------------------------------------|
|------------------------------------|------------------------------------|
|--5-/-7---8---7-----5-/-7---8---7---|----5-5-5-5-5-5-5-5-5-5-5-5-5-5-5---|
|--5-/-7---8---7-----5-/-7---8---7---|--5-3-3-3-3-3-3-3-3-3-3-3-3-3-3-3---|
|--3-/-5---6---5-----3-/-5---6---5---|--3---------------------------------|
|0-------0---0---0-0-------0---0---0-|----------------------------------0-|
     PM---------       PM---------



[ Tab from: http://www.guitartabs.cc/tabs/r/rammstein/wollt_ihr_das_bett_in_flammen_sehen_tab_ver_3.html ]
Verse
(guitar1)
|-----------------------------------------------------------------------|
|-----------------------------------------------------------------------|
|-5-/-7---8---7-----5-/-7---8---7-----5-/-7---8---7-----5-/-7---8---7---|4x
|-5-/-7---8---7-----5-/-7---8---7-----5-/-7---8---7-----5-/-7---8---7---|
|-3-/-5---6---5-----3-/-5---6---5-----3-/-5---6---5-----3-/-5---6---5---|
|-------0---0---0-0-------0---0---0-0-------0---0---0-0-------0---0---0-|
    PM---------       PM---------       PM---------       PM---------




Chorus
Part1
|(guitar1)
|------------------------------------|------------------------------------|
|------------------------------------|------------------------------------|
|--5-/-7---8---7-----5-/-7---8---7---|--5-/-7---8---7-----5-/-7---8---7---|
|--5-/-7---8---7-----5-/-7---8---7---|--5-/-7---8---7-----5-/-7---8---7---|
|--3-/-5---6---5-----3-/-5---6---5---|--3-/-5---6---5-----3-/-5---6---5---|
|0-------0---0---0-0-------0---0---0-|0-------0---0---0-0-------0---0---0-|
|    PM---------       PM---------        PM---------       PM---------
|(guitar2)                                                            [3X]
|------------------------------------|------------------------------------|
|------------------------------------|------------------------------------|
|----5-5-5-5-5-5-5-5-5-5-5-5-5-5-5---|--5-/-7---8---7-----5-/-7---8---7---|
|--5-3-3-3-3-3-3-3-3-3-3-3-3-3-3-3---|--5-/-7---8---7-----5-/-7---8---7---|
|--3---------------------------------|--3-/-5---6---5-----3-/-5---6---5---|
|----------------------------------0-|0-------0---0---0-0-------0---0---0-|
                                          PM---------       PM---------

Part2
|(guitar1)
|-------------------------------|
|-------------------------------|
|-5-5-5-5-5-5-5-5-5-5-5-5-5-5-5-|
|-3-3-3-3-3-3-3-3-3-3-3-3-3-3-3-|
|-------------------------------|
|-------------------------------|
|
|(guitar2)                       [1X]   
|-------------------------------|
|-------------------------------|
|-5-5-5-5-5-5-5-5-5-5-5-5-5-5-5-|
|-3-3-3-3-3-3-3-3-3-3-3-3-3-3-3-|
|-------------------------------|
|-------------------------------|




Bridge
(guitar1&2)
|--------------------------------------------------------|
|--------------------------------------------------------|
|--------------------------------------------------------|
|--------------------------------------------------------|
|-0---3-0--0---0----3-0--0---0----3-0--0---0----3-0--0---|
|-0---3-0--0---0----3-0--0---0----3-0--0---0----3-0--0---|
|        PM---         PM--          PM-----       PM-
|                                                          [2X]
|--------------------------------------|-second-|
|--------------------------------------|--time--|
|--------------------------------------|--------|
|--------------------------------------|--------|
|-0----3-0--0---0----3-0--0---0----3-0-|-0------|
|-0----3-0--0---0----3-0--0---0----3-0-|-0------|
PM-       PM-----       PM-----        PM-




Interlude2
|------------------------------------------------------------------------|
|------------------------------------------------------------------------|
|--------------5-/-7------------5-/-7------------5-/-7------------5-/-7--|
|--------------5-/-7------------5-/-7------------5-/-7------------5-/-7--|
|--------------3-/-5------------3-/-5------------3-/-5------------3-/-5--|
|-0--0--0--0-------------------------------------------------------------|
PM----------     PM-              PM-              PM-              PM-




Chorus
Part1
|(guitar1)
|-------------------------------|
|-------------------------------|
|-7---8---7-----5-/-7---8---7---|
|-7---8---7-----5-/-7---8---7---|
|-5---6---5-----3-/-5---6---5---|
|-----------0-0-------0---0---0-|
PM---------       PM---------
|
|(guitar2)                       [1X]   
|-------------------------------|
|-------------------------------|
|-5-5-5-5-5-5-5-5-5-5-5-5-5-5-5-|
|-3-3-3-3-3-3-3-3-3-3-3-3-3-3-3-|
|-------------------------------|
|-------------------------------|

Part2
|(guitar1)
|------------------------------------|------------------------------------|
|------------------------------------|------------------------------------|
|--5-/-7---8---7-----5-/-7---8---7---|--5-/-7---8---7-----5-/-7---8---7---|
|--5-/-7---8---7-----5-/-7---8---7---|--5-/-7---8---7-----5-/-7---8---7---|
|--3-/-5---6---5-----3-/-5---6---5---|--3-/-5---6---5-----3-/-5---6---5---|
|0-------0---0---0-0-------0---0---0-|0-------0---0---0-0-------0---0---0-|
|    PM---------       PM---------        PM---------       PM---------
|(guitar2)                                                            [3X]
|------------------------------------|------------------------------------|
|------------------------------------|------------------------------------|
|--5-/-7---8---7-----5-/-7---8---7---|----5-5-5-5-5-5-5-5-5-5-5-5-5-5-5---|
|--5-/-7---8---7-----5-/-7---8---7---|--5-3-3-3-3-3-3-3-3-3-3-3-3-3-3-3---|
|--3-/-5---6---5-----3-/-5---6---5---|--3---------------------------------|
|0-------0---0---0-0-------0---0---0-|----------------------------------0-|
     PM---------       PM---------




Outro
(guitar1&2)
|-----------------------------------------------------------------------|
|-----------------------------------------------------------------------|
|-5-/-7---8---7-----5-/-7---8---7-----5-/-7---8---7-----5-/-7---8---7---|8x
|-5-/-7---8---7-----5-/-7---8---7-----5-/-7---8---7-----5-/-7---8---7---|
|-3-/-5---6---5-----3-/-5---6---5-----3-/-5---6---5-----3-/-5---6---5---|
|-------0---0---0-0-------0---0---0-0-------0---0---0-0-------0---0---0-|
    PM---------       PM---------       PM---------       PM---------





Tabbed by metalolli
mailto: olli_mh@web.de
Comments