Rammstein - Weisses Fleisch Chords & Tabs

 

Weisses Fleisch Chords & Tabs

Rammstein Chords & Tabs

Version: 3 Type: Bass Tab 0 ratings
1 star 2 stars 3 stars 4 stars 5 stars
comments

Weisses Fleisch Bass Tab

   
Artist - Rammstein
Song - Weisses Fleisch
Album - Herzeleid
Tab By Olli_15


Main Riff -intro
G|---------------------------------
D|---------------------------------
A|---------------------------------
D|-0-0-3h4-0-0-3h4-0-0-3h4-0-0-3h4-

Verse 
G----------------------------------
D----------------------------------
A----------------------------------
D-1-3-4-3-1-3-4-3-1-3-4-3-1-3-4-3-

G-----------------------------------
D-----------------------------------
A-----------------------------------
D-0-0-3-4--0-0-3-4--0-0-3-4--0-0-3-4

  

 Chorus [1:15] 
[ Tab from: http://www.guitartabs.cc/tabs/r/rammstein/weisses_fleisch_btab_ver_3.html ]
G|-----------------------------------------------|-
D|-----------------------------------------------|-
A|-----------------------------------------------|-
D|-1------------6-4-3-------------4-1-------6-4--|-


Solo Bassline - [2:16]x4
 
G|---------------------------------
D|---------------------------------
A|---------------------------------
D|-1-3-4-3-1-3-4-3-1-3-4-3-1-3-4-3-

 Outro [3:29]
 x1
G|----------------------------------
D|----------------------------------
A|----------------------------------
D|-3-4-3-4-3-4-3-4-3-4-3-4-3-4-3----



[0:22] - MAIN RIFF x4
[0:30] - VERSE x4
[0:58] - BREAK [1 Bar]
[1:00] - VERSE x2
[1:15] - CHORUS
[1:26] - MAIN RIFF x4
[1:33] - VERSE x4
[2:02] - CHORUS
[2:32] - BREAK [1 Bar]
[2:34] - VERSE x4
[3:03] - CHORUS 
[3:14] - EXTENDED CHORUS LINE
[3:29] - OUTRO
Comments