Rammstein - Weisses Fleisch Chords & Tabs

 

Weisses Fleisch Chords & Tabs

Rammstein Chords & Tabs

Version: 1 Type: Bass Tab 0 ratings
1 star 2 stars 3 stars 4 stars 5 stars
comments

Weisses Fleisch Bass Tab

   
Tabbed by - Schem [Schemma@aol.com] [http://www.twistedinc.com]
Artist - Rammstein
Song - Weisses Fleisch
Album - Herzeleid

This song is strummed very quickly, so you CAN play a hammer-on for the main riff/verse,
although I'm pretty sure the bassist isn't hammering on the D# note.

+- Main Riff - [0:22] ----------------+
 x1
G|---------------------------------|
D|---------------------------------|
A|---------------------------------|
D|-0-0-3h4-0-0-3h4-0-0-3h4-0-0-3h4-|
  [0-0h3h4-0-0h3h4-0-0h3h4-0-0h3h4- if you can't strum fast enough]

--------------------------------------+

+- Verse - [0:22] -----------------------------------------------------+
 x1
G|---------------------------------|---------------------------------|
D|---------------------------------|---------------------------------|
A|---------------------------------|---------------------------------|
D|-1-3-4-3-1-3-4-3-1-3-4-3-1-3-4-3-|-0-0-3h4-0-0-3h4-0-0-3h4-0-0-3h4-|
  

-----------------------------------------------------------------------+
[ Tab from: http://www.guitartabs.cc/tabs/r/rammstein/weisses_fleisch_btab.html ]
+- Chorus [1:15] ------------------------------------+
 x1
G|-----------------------------------------------|-
D|-----------------------------------------------|-
A|-----------------------------------------------|-
D|-1------------6-4-3-------------4-1-------6-4--|-

-----------------------------------------------------+

+- Solo Bassline - [2:16] -------------+
 x4
G|---------------------------------|-
D|---------------------------------|-
A|---------------------------------|-
D|-1-3-4-3-1-3-4-3-1-3-4-3-1-3-4-3-|-

+---------------------------------------------------+
    
+- Extended Chorus Line - [3:14] -+
 x1
G|------------------------------------------------------------|-
D|------------------------------------------------------------|-
A|------------------------------------------------------------|-
D|-3--------------4-1-------6-4-3------------4-1----------6-4-|-


+- Outro [3:29] -----------------------+
 x1
G|----------------------------------|-
D|----------------------------------|-
A|----------------------------------|-
D|-3-4-3-4-3-4-3-4-3-4-3-4-3-4-3----|-

---------------------------------------+

[0:22] - MAIN RIFF x4
[0:30] - VERSE x4
[0:58] - BREAK [1 Bar]
[1:00] - VERSE x2
[1:15] - CHORUS
[1:26] - MAIN RIFF x4
[1:33] - VERSE x4
[2:02] - CHORUS
[2:16] - SOLO BASSLINE
[2:32] - BREAK [1 Bar]
[2:34] - VERSE x4
[3:03] - CHORUS 
[3:14] - EXTENDED CHORUS LINE
[3:29] - OUTRO

Comments