Rammstein - Tier Chords & Tabs

 

Tier Chords & Tabs

Rammstein Chords & Tabs

Version: 1 Type: Tab 1 rating
1 star 2 stars 3 stars 4 stars 5 stars
comments

Tier Tab

Tier
R A M M S T E I N
Tabbed By Aaron Bridgeman (rokken@sicness.net)

http://bogans.arecool.net

KEY:
pm. = palm mute
/   = slide up
\   = slide down

INTRO:
e|----------------|
B|----------------|
G|----------------|
D|-5---8---10---3-|
A|-5---8---10---3-|
D|-5---8---10---3-|
Play these chords clean
[ Tab from: http://www.guitartabs.cc/tabs/r/rammstein/tier_tab.html ]
MAIN RIFF / CHORUS:
e|----------------------------------------------------------|
B|----------------------------------------------------------|
G|----------------------------------------------------------|
D|-5/7-----5/7-----8-7-5/7-----5/7-----5/7-----8-10-6\5-----|
A|-3/5-----3/5-----6-5-3/5-----3/5-----3/5-----6-8--6\5-----|
D|-----0-0-----0-0---------0-0-----0-0-----0-0----------0-0-|
pm     . .     . .         . .     . .     . .          . .

BRIDGE:
e|----------------------------------------------------------------------|
B|----------------------------------------------------------------------|
G|----------------------------------------------------------------------|
D|----------------------------------------------------------------------|
A|-5-------5-------8-------8-------10---------10---------1-------3------|
D|-5--5-5--5--5-5--8--8-8--8--8-8--10--10-10--10--10-10--1--1-1--3--3-3-|
      . .     . .     . .     . .      .  .       .  .      . .     . .

That's all the guitar parts in the song, enjoy
Comments