Rammstein - Stripped Chords & Tabs

 

Stripped Chords & Tabs

Rammstein Chords & Tabs

Version: 3 Type: Tab 0 ratings
1 star 2 stars 3 stars 4 stars 5 stars
comments

Stripped Tab

   
Stripped

R A M M S T E I N

Tabbed By Aaron Bridgeman (rokken@sicness.net)


http://bogans.arecool.net

Tuning: Drop D (D A D G B e)

KEY:
pm. = palm mute
^   = bend up
x   = dead note

INTRO:
e|------------------------------------------->
B|----------------------------------------4^->
G|------------------------------------------->
D|-2-2---2----2-2---2----2-2---2----2-2------>
A|-2-2-0-2--0-2-2-0-2--0-2-2-0-2--0-2-2------>
D|-2-2-0-2--0-2-2-0-2--0-2-2-0-2--0-2-2------>
pm     .    .     .    .     .    .

<-----------------------------------------------|
<-----------------------------------------------|
<-----------------------------------------------|
<-2-2---2----2-2---2----2-2---2----2-2------2---|
<-2-2-0-2--0-2-2-0-2--0-2-2-0-2--0-2-2--0-0-2-0-|
<-2-2-0-2--0-2-2-0-2--0-2-2-0-2--0-2-2--0-0-2-0-|
pm    .    .     .    .     .    .      . .   .
[ Tab from: http://www.guitartabs.cc/tabs/r/rammstein/stripped_tab_ver_3.html ]
KEYBOARDY BIT (arranged for guitar):
e|----------------------------------------------------------|
B|----------------------------------------------------------|
G|----------------------------------------------------------|
D|-5-5-x-5-x--0-0-x-0-x--10-10-x-10-x--2-2-x-2-x--2-2-x-2-x-|
A|-5-5-x-5-x--0-0-x-0-x--10-10-x-10-x--2-2-x-2-x--2-2-x-2-x-|
D|-5-5-x-5-x--0-0-x-0-x--10-10-x-10-x--2-2-x-2-x--2-2-x-2-x-|

CHORUS:
e|---------------------------------------|
B|---------------------------------------|
G|---------------------------------------|
D|-5-----0-----10-----2-2---2----2-2---2-|
A|-5-----0-----10-----2-2-0-2--0-2-2-0-2-|
D|-5-----0-----10-----2-2-0-2--0-2-2-0-2-|
pm                        .    .     .
Strum the first 3 chords a few times

OUTRO LEAD:
e|------------------------------|
B|----------------15------15----|
G|--------12-14------12------12-|
D|-14-16------------------------|
A|------------------------------|
D|------------------------------|

That's it. Finally could be bothered to tab the best Rammstein song ever.
Comments