Rammstein - Stripped Chords & Tabs

 

Stripped Chords & Tabs

Rammstein Chords & Tabs

Version: 2 Type: Bass Tab 0 ratings
1 star 2 stars 3 stars 4 stars 5 stars
comments

Stripped Bass Tab

Stripped - Rammstein

By: Jon Craven (i_apathy@hotmail.com)
For questions, comments, feedback, an outline of the timing, write the above
address.

Notes:
  -The bass in this song sounds like synth.
  -Oliver uses a 5-string, though I'm not sure when he started using it; for
that reason I have written this song for a 5-string.

(4/4)(100 bpm)
5-string in standard tuning

R - quarter rest

Chorus 1: (0:44)
|----------------|----------------|----------------|----------------|
|----------------|----------------|----------------|----------------|
|----------------|----------------|----------------|----------------|
|----------------|----------------|----------------|----------------|
|5-5-353-5-5-353-|5-5-353-5-5-R---|5-5-353-5-5-353-|5-5-353-5-5-R---|
[ Tab from: http://www.guitartabs.cc/tabs/r/rammstein/stripped_btab_ver_2.html ]
|----------------|----------------|----------------|----------------|
|----------------|----------------|----------------|----------------|
|----------------|----------------|----------------|----------------|
|----------------|----------------|----------------|----------------|
|5-5-353-5-5-353-|5-5-353-5-5-335-|5-5-353-5-5-353-|5-5-353-5-5-R---|

Rest for nine measures

Chorus 2: (x4)(1:25)
|----------------|----------------|----------------|----------------|
|----------------|----------------|----------------|----------------|
|----------------|----------------|----------------|----------------|
|----------------|5-5-353-5-5-353-|8-8-686-8-8-686-|----------------|
|3-3-131-3-3-131-|----------------|----------------|5-5-353-5-5-353-|

Rest for eight measures

Bridge (outro): (2:13)
|----------------|----------------|----------------|----------------|
|----------------|----------------|----------------|----------------|
|5-5-353-5-5-353-|----------------|----------------|7-7-757-7-7-R---|
|----------------|5-5-353-5-5-353-|8-8-686-8-8-686-|----------------|
|----------------|----------------|----------------|----------------|

Chorus 2 (x4)
Outro (x4)
Rest till end
Comments