Rammstein - Stirb Nicht Vor Mir Dont Die Before I Do Chords & Tabs

 

Stirb Nicht Vor Mir Dont Die Before I Do Chords & Tabs

Rammstein Chords & Tabs

Version: 2 Type: Chords

Stirb Nicht Vor Mir Dont Die Before I Do Chords

   
Band : Rammstein 
Album: Rosenrot 
Song : Stirb nicht vor mir

                                                      [Riff]
e|---------------------------------------------------------|
H|--------10----------10----------10----------10-----------|
G|-----11----11----11----11----11----11----11----11--------|
D|--12----------12----------11----------11-----------------|
A|---------------------------------------------------------|
E|---------------------------------------------------------|

e|---------------------------------------------------------|
H|--------10-----------------------------------------------|
G|-----11----11---------------------------------------4/6--|
D|--12----------12--9--11--12--11---9--11--12--11--7-------|
A|---------------------------------------------------------|
E|---------------------------------------------------------|

This chords playing with Riff in intro..
Bm -> F#m -> Gm -> Em     

Gm                     Bm
Die Nacht öffnet ihren Schoß 
Gm                   Bm         
Das Kind heißt Einsamkeit 
Gm                     Bm
Es ist kalt und regungslos 
Gm                     Bm      
Ich weine leise in die Zeit 

Gm                     Bm            
Ich weiß nicht wie du heißt 
Gm                     Bm       
Doch ich weiß dass es dich gibt 
F#m                 Bm              
Ich weiß dass irgendwann 
Gm             F#m                
irgendwer mich liebt 

[Riff] (and behind 2nd guitar playing Bm,F#m,Gm,Em)
[ Tab from: http://www.guitartabs.cc/tabs/r/rammstein/stirb_nicht_vor_mir_dont_die_before_i_do_crd_ver_2.html ]
Gm                   Bm
He comes to me every night 
Gm                   Bm
No words are left to say 
Gm                       Bm
With his hands around my neck 
Gm                       Bm
I close my eyes and pass away 

Gm               Bm
I don't know who he is 
Gm                   Bm
In my dreams he does exist 
F#m         Bm 
His passion is a kiss 
Gm            F#       Gm
And I can not resist 

Bm  F#m 
Ich warte hier 
Gm               E
Don't die before I do 
Bm  F#m
Ich warte hier 
Gm              E  
Stirb nicht vor mir 

[Riff]
I don't know who you are 
I know that you exist 

[Riff]
Stirb nicht 
Sometimes love seems so far 

[Riff]
Ich warte hier 
Your love I can't dismiss 

F#m
Ich warte hier 


Alle Häuser sind verschneit 
Und in den Fenstern Kerzenlicht 
Dort liegen sie zu zweit 
Und ich 
                       Gm
Ich warte nur auf dich 
    F#m 
Ich warte hier 
Gm               Em
Don't die before I do 
F#m
Ich warte hier 
Gm              Em  
Stirb nicht vor mir

Gm           F#
I don't know who you are 
Gm              F#
I know that you exist 

Stirb nicht 
Gm                      F#m    Gm
Sometimes love seems so far 
    F#m
Ich warte hier 
Em                 F#m
Your love I can't dismiss 

Stirb nicht vor mir  

Şarkıda kullanılan akorlar... 
Chords are...

     |Bm|     |F#m|     |Gm|     |Em|
e|---|-2|-----|-0-|-----|--|-----|--|    
H|---|-2|-----|-2-|-----|-4|-----|0-|
G|---|-4|-----|-2-|-----|-4|-----|0-|
D|---|-4|-----|-4-|-----|-6|-----|2-|
A|---|-2|-----|-4-|-----|-6|-----|2-|
E|---|--|-----|-2-|-----|-4|-----|0-|

'B' is 'H' in German Note System 

wolkan_cirak@hotmail.com