Rammstein - Stinb Nicht Vor Mir Chords & Tabs

 

Stinb Nicht Vor Mir Chords & Tabs

Rammstein Chords & Tabs

Version: 1 Type: Tab 0 ratings
1 star 2 stars 3 stars 4 stars 5 stars
comments

Stinb Nicht Vor Mir Tab

this is pretty easy all's u gotta do is follow the beat and remember where to change over this is my first tab ever and im onyl doing the rythm part
 
guitar 1:



----------------------------------------------------------------------
--------------------------------10--------------------------------------
----------------------------------11------------------------------------  x2
------------------------------------0----------------------------------
----------------------------------------------------------------------
----------------------------------------------------------------------


PART 1 AND 2 ARE BOTH CHORUS 
[ Tab from: http://www.guitartabs.cc/tabs/r/rammstein/stinb_nicht_vor_mir_tab.html ]
--------------------------------------------------------------------
--------------------------------------10------------------------------
----------------------------------------11----------------------------   x2 
------------------------------------------11--------------------------
--------------------------------------------------------------------
-----------------------------------------------------------------------



----------------------------------------------------------------------
---------------------------------------------------------------------- VERSE
----------------------------------------------------------------------
--------------------------------7-9-10-9-10----------------------------------
----------------------------------------------------------------------
----------------------------------------------------------------------







SO THATS PRETTY MUCH THE WHOLE SONG, JSUT LISTEN TO IT AND YOU'LL FIGURE IT OUT ITS NUMBER 6 ON THE ROSENROT CD FOR ALL U WHO DO LISTEN TO IT OR HAVE IT
Comments