Rammstein - Spieluhr Chords & Tabs

 

Spieluhr Chords & Tabs

Rammstein Chords & Tabs

Version: 3 Type: Tab 0 ratings
1 star 2 stars 3 stars 4 stars 5 stars
comments

Spieluhr Tab

   
-------------------------------------------------------------------------------
			     Spieluhr - Rammstein
-------------------------------------------------------------------------------
Tabbed by:Matt A.K.A- Govprj
Email:testbug5@yahoo.com

Tuning:normal

| /  slide up
| \  slide down
| h  hammer-on
| p  pull-off
| ~  vibrato
| +  harmonic
| x  Mute note

	Intro: Played by keyboard but sounds ok with guitar

E-------0-------0-------0-------0--------0--------0-------0--|
B-----6-------6-------6-------6--------6--------6-------6----|
G---7-------7-------7-------7--------7--------7-------7------|
D-0-------0-------8-------8-------10-------10-------7--------|
A------------------------------------------------------------|
E------------------------------------------------------------|


E--------0--|
B------6----|
G----7------|
D--7--------|
A-----------|
E-----------|

Main riff: (with distortion)
[ Tab from: http://www.guitartabs.cc/tabs/r/rammstein/spieluhr_tab_ver_3.html ]
E---------------------------------------------|
B---------------------------------------------|
G---------------------------------------------|
D-4----4-xx-4----4-4-xx-4-4-xx-4-4-xx-4---555-|
A-4----4-xx-4----4-4-xx-4-4-xx-4-4-xx-4---555-|
E-1----1-xx-1----1-1-xx-1-1-xx-1-1-xx-1---333-|

(2 times)
Play main riff without distortion until the chorus

Chorus: (whit distortion)

E-----------------------------------------------------|
B-----------------------------------------------------|
G-777777777777-333333333333---------------------------|
D-777777777777-333333333333-333333333333-777777777777-|
A-555555555555-111111111111-333333333333-777777777777-|
E---------------------------111111111111-555555555555-|
Then play the Main riff without distortion until the solo whit distortion

Solo

E-------------------------------------------------------------------------------|
B-------------------------------------------------------------------------------|
G-------------------------------------------------------------------------------|
D-777777777777-7/10-10/9-3333333333-3-10101010101010101010101010-555555555555---|
A-555555555555-5/8--8-/7-1111111111-1/8-8-8-8-8-8-8-8-8-8-8-8-8--333333333333---|
E-------------------------------------------------------------------------------|

Now play the chorus untill the end
===============================================================================
Comments