Rammstein - Spiel Mit Mir Chords & Tabs

 

Spiel Mit Mir Chords & Tabs

Rammstein Chords & Tabs

Version: 3 Type: Tab 0 ratings
1 star 2 stars 3 stars 4 stars 5 stars
comments

Spiel Mit Mir Tab

       Spiel Mit Mir

              Rammstein

                   Sehnsucht

***************************
Notation Guide            *
***************************
~ - Vibrato
5p7 - pulloff
7h5 - hammeron
\ / - slide
3^5 - Bend Note
(3)^5 - Prebend
^5 - re-pick bend

W.b. - whammy bar
vio. - Violining, pick note with volume turned down, then raise volume
[9] - harmonic
        NH - Natural
        AH - Artificial
        PH - Pinch

pm - palm muting
rit. - Slower
. - quick note (stacatto)
*****************************


This is one of my favourite r+ songs. It's just awesome. The timing of the guitar riffs 
is a bit tricky butwith some practise you can get them pretty easily. 
I have tried to make this tab as complete as possible. I have arranged every keyboard and 
guitar part and even the La La La on the last chorus for guitar. I am confident that this 
tab is at least 90% correct. If it isn't, then feel free to tell me. 



Keyboard arr. for guitar

Intro
e|----| 
b|----| 
g|----| 
d|----| 
a|----| 
D|-2--| 
  Vio.


(0:57)
...dicht an mich heran 
e|---------------------------------------------------|
b|----------------------------12-11-------12-11-10---|
g|-----------------------9-10--------9-10------------|
d|---------------------------------------------------|
a|---------------------------------------------------|
D|---------------------------------------------------|


The two quirky little licks go:
e|----------------------------------------------
b|------12-11-------12-11-10--------10--13------
g|-9-10--------9-10-----------9-10---------------
d|-----------------------------------------------
a|-----------------------------------------------
D|-----------------------------------------------

----------------------------------------------
---------12-11---------12-11-10------12------
---9-10----------9-10------------8-8----9----
----------------------------------------------
----------------------------------------------
----------------------------------------------

Semi-Chorus                                w/ different tone 
e|---------------------------------------------------------------
b|--------------(slight variation)-------------------------------
g|--------------------5-7-5--------------------------------------
d|--7~~~-8--5----7~~~~-------5-7~~~--------8-8-5-4-5-5-----------
a|-------.--.------------------------------------------------------
D|-----------------------------------------(ending)--------------
   Vio.          Vio.
Spiel...


Chorus
e|-------------------------------------------------------------
b|-------------------------------------------------------------
g|----7-9-7---------------------------7-9-7--------------10-9--
d|--9----------5-9-5-7~--9-10-9-5---9----------5-9-5-7---------Repeat
a|-----------7-------------------------------7-----------------
D|-------------------------------------------------------------


(2:39)
Bridge (free time, vio. throughout)
e|--------------------------------------------------
b|--------------------------------------------------
g|-------------------------------(rit.)-------------
d|--------------------------------------------------
a|------------------------6--7----------------------
D|-------------------7~~---------8--7~~----5--4--3--
Vater, Mutter, Kind

[ Tab from: http://www.guitartabs.cc/tabs/r/rammstein/spiel_mit_mir_tab_ver_3.html ]
THis is played with the solo and use a lot of vibrato and a harmonizer if you have one. 
(vio. throughout)
e|--------------------------------------------------------------
b|--------------------------------------------------------------
g|--------------------------------------------------------------
d|--------------------------------------------------------------
a|-------1---2--------------------------------------4--5--------
D|-2--------------3----2(hold for 6 beats)-3--4--5--------6--5--


Verse Use plenty of tremolo and harmonizer effects. Lots of vibrato.
e|---------------------------------------------------------
b|---------------------------------------------------------
g|-9~~--15~~16~~-10~-9--------------10~~11~~12~~~~18~~19~~~
d|---------------------------------------------------------
a|-7~~--13~~14~~-8~--7(hold 6 beats)-8~~9~~~10~~~~16~~17~~~
D|---------------------------------------------------------
                          
------------------------
------------------------
--13~~~12~~~~-13-------
------------------------
--11~~~10~~~~-11-------   
---------------.---------
                                         
Guitar Arrangement:

Verse Riff
This is a simple riff but the timing pattern of it is quite complex. 
I've tried to make it as clear as possible here.
   pm----|     pm----------------------------------------|
e|---------------------------------------------------------
b|---------------------------------------------------------
g|---------------------------------------------------------
d|---2-2-2----0h2-2-2--2-2-2----2-2-2--2--2---3--3---0--0--
a|---2-2-2----0h2-2-2--2-2-2----2-2-2--2--2---3--3---0--0--
D|---2-2-2----0h2-2-2--2-2-2----2-2-2--2--2---3--3---0--0--
   Listen to the record to get it right. The trick here is that when the riffs
   Start, the 1st beat is not played, the riffs start on beat 2.


Semi Chorus
  pm---|     pm------------------------------------------|
e|---------------------------------------------------------
b|---------------------------------------------------------
g|---------------------------------------------------------
d|-7-7-7----5h7-7-7--7-7-7----7-7-7---7-7-8--8-8--5--5-5---
a|-7-7-7----5h7-7-7--7-7-7----7-7-7---7-7-8--8-8--5--5-5---
D|-7-7-7----5h7-7-7--7-7-7----7-7-7---7-7-8--8-8--5--5-5---
Spiel                          ein speil   mit      mir    


  pm---|     pm-----------------------|                            
e|--------------------------------------|
b|--------------------------------------|
g|--------------------------------------|
d|-7-7-7----5h7-7-7--7-7-7----7-7-7--8--|
a|-7-7-7----5h7-7-7--7-7-7----7-7-7--8--|
D|-7-7-7----5h7-7-7--7-7-7----7-7-7--8--|
Gib             mir deine hand        Und   
 

Chorus
    pm---------------------------------------------------------|
e|---------------------------------------------------------------
b|---------------------------------------------------------------
g|--4-4-4--------------------------------------------------------
d|--4-4-4---2--2--2---2--2--2---7-7-7---7--7---3--3-3---2--2-2---
a|--2-2-2---2--2--2---2--2--2---7-7-7---7--7---3--3-3---2--2-2---
D|----------2--2--2---2--2--2---7-7-7---7--7---3--3-3---2--2-2---
  Speil...


Solo
e|-------------
b|-0h12p0h12---
g|-------------
d|-------------
a|-------------
D|-------------
not really a solo actually, but it sounds pretty cool when you start messing around
with the whammy bar while doing that. At the end slide to 17 and use a wah with a lot of
vibrato.


Semi Chorus 
e|-----------------------------
b|-----------------------------
g|-----------------------------back to
d|--------------------8----7---semi-chorus
a|--------------------8----7---
D|--------------------8----7---
Spiel.... ein spiel  mit  mir

Chorus until end.


"La La La" arr. for guitar
e|-----------------------------
b|-12--12--10------------------
g|------------9-/-10-/-13-\-9~-
d|-----------------------------
a|-----------------------------
D|-----------------------------


Tabbed by g_r3v@hotmail.com
Comments