Rammstein - Spiel Mit Mir Chords & Tabs

 

Spiel Mit Mir Chords & Tabs

Rammstein Chords & Tabs

Version: 6 Type: Bass Tab 0 ratings
1 star 2 stars 3 stars 4 stars 5 stars
comments

Spiel Mit Mir Bass Tab

Rammstein
Spiel Mit Mir

------------------------------------------------------
Drop tuning into G,D,A,D but make sure it sound right!
------------------------------------------------------

G|-------------------------------|
D|-------------------------------|
A|-------------------------------| x4
D|--000--000-000--00000--11--11--|


G|-----------------------------------|
D|-----------------------------------|
A|-----------------------------------|
D|--555--555-555--55555--6-66--3-33--|


G|---------------------------|
D|---------------------------|
A|---------------------------|
D|--555--555-555--55555--6~--|


G|-------------------------------|
D|-------------------------------|
A|-------------------------------| x4
D|--000--000-000--00000--11--11--|


G|-----------------------------------|
D|-----------------------------------|
A|-----------------------------------|
D|--555--555-555--55555--6-66--3-33--|


G|---------------------------|
D|---------------------------|
A|---------------------------|
D|--555--555-555--55555--6~--|


G|---------------------------------|
D|---------------------------------|
A|--222----------00000-------------| x3
D|-------000-000-------1-11--0-00--|

[ Tab from: http://www.guitartabs.cc/tabs/r/rammstein/spiel_mit_mir_btab_ver_6.html ]
G|-----------------------------|
D|-----------------------------|
A|--222----------00000---------|
D|-------000-000-------1~--0~--|


(During guitar solo)
G|-----------------------------|
D|-----------------------------|
A|-----------------------------| x4
D|--000--000-000-00000--11-11--|


G|-----------------------------|
D|-----------------------------|
A|-----------------------------| x4
D|--000--000-000-00000--11-11--|


G|---------------------------------|
D|---------------------------------|
A|---------------------------------|
D|-----------------------6~----3~--|


G|--------------------------|
D|--------------------------|
A|--------------------------|
D|--555--555-555-55555--6~--|


G|---------------------------------|
D|---------------------------------|
A|--222----------00000-------------| x3
D|-------000-000-------1-11--0-00--|


G|-----------------------------|
D|-----------------------------|
A|--222----------00000---------|
D|-------000-000-------1~--0~--|


G|---------------------------------|
D|---------------------------------|
A|--222----------00000-------------| x3
D|-------000-000-------1-11--0-00--|


G|-----------------------------|
D|-----------------------------|
A|--222----------00000---------|
D|-------000-000-------1~--0~--|END


Listen to the song while you play this and you cant go wrong! //Hydroxidus
Comments