Rammstein - Spiel Mit Mir Chords & Tabs

 

Spiel Mit Mir Chords & Tabs

Rammstein Chords & Tabs

Version: 5 Type: Bass Tab 0 ratings
1 star 2 stars 3 stars 4 stars 5 stars
comments

Spiel Mit Mir Bass Tab

Rammstein - Spiel Mit Mir

By: Peter Bergman

(4/4)
standard tuning


(x4)
G|---------------------------------|
D|---------------------------------|
A|-----2---------------------------|
E|-000--000-000-000-00--11--11-----|

(x1)
G|---------------------------------|
D|---------------------------------|
A|-----7---------------------------|
E|-555--555-555-555-55-666-333-----|
[ Tab from: http://www.guitartabs.cc/tabs/r/rammstein/spiel_mit_mir_btab_ver_5.html ]
(x1)
G|---------------------------------|
D|---------------------------------|
A|-----7---------------------------|
E|-555--555-555-555-55-6~----------|

(x4)
G|---------------------------------|
D|---------------------------------|
A|-222---------000-00--------------|
E|-----000-000--------111-000------|

until end
G|---------------------------------|
D|---------------------------------|
A|-----2---------------------------|
E|-000--000-000-000-00--11--11-----|

(finish)
G|---------------------------------|
D|---------------------------------|
A|---------------------------------|
E|-000-00-1-0~---------------------|


sumthin' like that :)
Comments